Oops, an error
Loading. Please wait.

Through Windows Clear Tab

version 1
version 1

Whole song

263 views 1 this week
no commentswrite comment
1 2 3 4 5
please rate
add to favorites
launch autoscroll
font size
0
reset
how to read this tab
guitar tuner
Autoscroll
slow
fast
+/-
esc
set tempo
stop
Help us to improve Ultimate-Guitar.com Take our survey!
×
-------------------------------------------------------------------------------
                             THROUGH WINDOWS CLEAR - Anarchy Club
-------------------------------------------------------------------------------
Tabbed by: SlauterHouZe101
Email: Zjbpost@aol.com

This is the whole song, other than a tiny bit of noise at one point and a
clean section at another.  I will put up the rest when I have figured it out.

Tuning: Drop D

e|---------------------------------------------------------------------------|
B|---------------------------------------------------------------------------|
G|---------------------------------------------------------------------------|
D|--7---7---x--x--x--7---x--7-\-6--6---6---x--x--x--6---x--6-\---------------|
A|--7---7---x--x--x--7---x--7-\-6--6---6---x--x--x--6---x--6-\---------------|
E|--7---7---x--x--x--7---x--7-\-6--6---6---x--x--x--6---x--6-\---------------|
            

e|---------------------------------------------------------------------------|
B|---------------------------------------------------------------------------|
G|---------------------------------------------------------------------------|
D|--5--5---5---x--x--x--5---x--5-\-4--4---4---4--/--5--/--7------------------|
A|--5--5---5---x--x--x--5---x--5-\-4--4---4---4--/--5--/--7------------------|
E|--5--5---5---x--x--x--5---x--5-\-4--4---4---4--/--5--/--7------------------|
          

| /  slide up
| \  slide down
| x  Mute note
===============================================================================
Suggest correction
Give kudos to tab author, rate the tab!
1 2 3 4 5
comments
print report bad tab
guest
You may want to rate the tab now too:
select rating
Please do not post tabs as comments. Select "correction" instead!