Oops, an error
Loading. Please wait.

A Natural Disaster Tab

version 4
version 4

Whole song

Interactive

2,157 views 15 this week
1 commentread comment
1 2 3 4 5
x 3
add to favorites
launch autoscroll
font size
0
reset
how to read this tab
guitar tuner
Autoscroll
slow
fast
+/-
esc
set tempo
stop
Help us to improve Ultimate-Guitar.com Take our survey!
×
Author
Difficulty
novice
 Part I:
 
e|-------------------------------|
B|-------------------------------|
G|-------------------------------|
D|--2-4-5-4-2--5---2---2---------|
A|-------------5---4---2---------|
E|-------------3---0---0---------|


 Part II:

               
e|-------------------------------|
B|-------------------------------|
G|-------------------------------|
D|--2-4-5-4-2--5---2---4---------|
A|-------------5---4---2---------|
E|-------------3---0---0---------|
               You just slipped through my fingers


Chorus:
~~~~~~~
    C  Em  Bm
e|--3---0---2--|
B|--3---0---3--|
G|--5---0---4--|
D|--5---2---4--|
A|--3---2---2--|
E|------0------|

the order it's played in:

Part I
Part II
Part I
Chorus
Part I
Chorus
Suggest correction
Give kudos to tab author, rate the tab!
1 2 3 4 5
comments
print report bad tab
1 comment total.
0 reply
jonatan666 31 Jan 05, 2012 10:26 AM

part 2 should be like this

Part II:


e|-------------------------------|
B|-------------------------------|
G|-------------------------------|
D|--2-4-5-4-2--5---2---4---------|
A|-------------5---4---2---------|
E|-------------3---0---0---------|

guest
You may want to rate the tab now too:
select rating
Wanna post a correction for this tab? Suggest correction