Oops, an error
Loading. Please wait.

Are You There Tab

version 1
version 1

Whole song

Interactive

18,705 views 15 this week
2 commentsread comments
1 2 3 4 5
accurate
x 4
add to favorites
launch autoscroll
font size
0
reset
how to read this tab
guitar tuner
Autoscroll
slow
fast
+/-
esc
set tempo
stop
Help us to improve Ultimate-Guitar.com Take our survey!
×
Author
Difficulty
intermediate
are you there ?

by Anathema
from the fabulous new album 'a natural disaster '


transcribed by Christian Reindel(creindel@gmx.de)
any questions or corrections- e-mail me

Copyright (c)  (Music For Nations) (2003)
Version 2.0 - (13.05.04)

a very beautiful song !!!


mainchords - play the whole song - use a flanger or other spaceeffects
for your guitar to imitate the keyboards

   D        F       Bb       D       A       Bb
E---------------------------------------------------------------|
B---------------------------------------------------------------|
G--7--------10---------------7----------------------------------|
D-------------------8----------------7--------8-----------------|
A---------------------------------------------------------------|
E---------------------------------------------------------------|


guitarsolo


part 1  -   3 times

E--6--6-6--5--5-5--3--3-3--1-1--------6--6-6--5--5-5--3--3-3--1-1----|
B--------------------------------------------------------------------|
G--------------------------------------------------------------------|
D--------------------------------------------------------------------|
A--------------------------------------------------------------------|
E--------------------------------------------------------------------|

                       end part 1

E---8--8-8--6--5-5--3--1-3-5--1--|
B--------------------------------|
G--------------------------------|
D--------------------------------|
A--------------------------------|
E--------------------------------|


part 2  -  1 time

E--6--6-6--5--5-5--8--8-8--5--5-5----6--6-6--5--5-5---8--8-8--5--5-5---|
B----------------------------------------------------------------------|
G----------------------------------------------------------------------|
D----------------------------------------------------------------------|
A----------------------------------------------------------------------|
E----------------------------------------------------------------------|


                       end part 2

E---6--6-6--8--5-5--3--1-3-5--1--|
B--------------------------------|
G--------------------------------|
D--------------------------------|
A--------------------------------|
E--------------------------------|

end.
Suggest correction
comments
print report bad tab
2 comments total.
0 reply
Gundi 6,072 wrote on May 13 2004, 12:00 am

Sorry, I made some mistakes - here is the correct tabversion of

are you there ?

by Anathema
from the fabulous new album 'a natural disater '


transcribed by Christian Reindel(creindel@gmx.de)
any questions or corrections- e-mail me

a very beautiful song !!!


mainchords - play the whole song - use a flanger or other spaceeffects
for your guitar to imitate the keyboards

D F Bb D A Bb
E---------------------------------------------------------------
B---------------------------------------------------------------
G--7--------10---------------7----------------------------------
D-------------------8----------------7--------8-----------------
A---------------------------------------------------------------
E---------------------------------------------------------------


guitarsolo
3 times

E--6--6-6--5--5-5--3--3-3--1-1--------6--6-6--5--5-5--3--3-3--1-1-------8--8-8--6--5-5--3--1-3-5--1--
B----------------------------------------------------------------------------------------------------
G----------------------------------------------------------------------------------------------------
D----------------------------------------------------------------------------------------------------
A----------------------------------------------------------------------------------------------------
E----------------------------------------------------------------------------------------------------

1 time

E--6--6-6--5--5-5--8--8-8--5--5-5----6--6-6--5--5-5---8--8-8--5--5-5----6--6-6--8--5-5--3--1-3-5--1--
B----------------------------------------------------------------------------------------------------
G----------------------------------------------------------------------------------------------------
D----------------------------------------------------------------------------------------------------
A----------------------------------------------------------------------------------------------------
E----------------------------------------------------------------------------------------------------


end.

0 reply
semus 222 wrote on October 4 2006, 10:52 am

hey, i think the chords should be:

|Dm |F |Bb |Dm |Am | Bb |

guest
You may want to rate the tab now too:
select rating
Please do not post tabs as comments. Select "correction" instead!