Oops, an error
Loading. Please wait.

Ariel tab

64 views 12 this week
no commentswrite comment
1 2 3 4 5
3 more votes to show rating
add to favorites
×
Save as Personal and add changes to this tab that will be seen only by you. Learn more ›
×
You can save this tab as Personal to edit and correct it or add notes. All changes will be seen only by you. Learn more »
launch autoscroll
font size
0
reset
how to read this tab
guitar tuner
edit
Autoscroll
slow
fast
+/-
esc
set tempo
stop
About this tab version
This is the first tab of this song. Was this info helpful? Yes No
Artist: Anathema
Song: Ariel
Album: Distant Satellites (2014) 

[Intro]
I found you
In the dark
I found you
In the dark
Don't leave me
Here
Don't leave me
Staring at the sun
A love so strong it hurts
Staring at the sun
A love so strong it hurts
I dreamed of you
In the dark
You spoke to me
From afar
What you mean to me
Is clear
And I'll always be near...

[Chorus]
(Guitar 1, 2) (W/Overdrive)
Capo 1st fret

I found you
In the dark
I found you
In the dark

Don't leave me
Here
Don't leave me

e|----0------0----------0-------0----|
B|----1------1----------0-------0----|
G|-0------0---------0-------0--------|(x3)
D|-2------2--------2-------2---------|
A|-3------3-------2-------2----------|
D|-----------------------------------|

Staring at the sun
A love so strong it hurts
Staring at the sun
A love so strong it hurts

e|----0------0-----------------------|-----0----------0-------|
B|----1------0-----------------------|-----0----------0-------|
G|-0------2-----------------------2--|-2-2---2-2--2-2---2-----|
D|-2------0-----2-2-2-2--0-0-0-0--2--|-2-2---2-2--2-2---2-2-2-|
A|-3------3-----2-2-2-2--0-0-0-0--0--|-0-0---0-0--0-0---0-2-2-|
D|--------------2-2-2-2--0-0-0-0-----|--------------------2-2-|

I look into your eyes
See my life defined
Look into your eyes
See your heart in mine

e|----------------------0----0-------|------------------------|
B|----------------------0----0-------|------------------------|
G|---------------2--2-2---2-2--2-2-2-|-------------------2-2--|
D|-2-2--0-0-0-0--2--2-2---2-2--2-2-0-|-2-2-2-2--0-0-0-0--2-2--|
A|-2-2--0-0-0-0--0--0-0---0-0--0-0-0-|-2-2-2-2--0-0-0-0--0-0--|
D|-2-2--0-0-0-0----------------------|-2-2-2-2--0-0-0-0-------|

e|---0-------------------------------|-------0----------0-----|
B|---0-------------------------------|-------0----------0-----|
G|-2---2-2---------------------------|-2-2-2---2-2--2-2---2-2-|
D|-2---2-2-4-4-4-4--5-5-5-5--0-0-0-0-|-2-2-2---2-2--2-2---2-2-|
A|-0---0-0-4-4-4-4--5-5-5-5--0-0-0-0-|-0-0-0---0-0--0-0---0-0-|
D|---------4-4-4-4--5-5-5-5--0-0-0-0-|------------------------|

[Solo]
(Guitar 2) 
(Rythm, W/Ovedrive)
e|------------------------|---0----------0-----|
B|------------------------|---0----------0-----|
G|--------------------2-2-|-2---2-2--2-2---2-2-|
D|-5-5-5-5--0-0-0-0---2-2-|-2---2-2--2-2---2-2-|(x2)
A|-5-5-5-5--0-0-0-0---0-0-|-0---0-0--0-0---0-0-|
D|-5-5-5-5--0-0-0-0-------|--------------------|

e|--------------------------0---------------|---------------------------|
B|--------------------------0---------------|---------------------0-----|
G|-------------------2--2-2---2-2-----------|--------------------2------|
D|-5-5-5-5--0-0-0-0--2--2-2---2-2-4-4-4-4-5-|-5-5-5--0-0-0-0----2-------|
A|-5-5-5-5--0-0-0-0--0--0-0---0-0-4-4-4-4-5-|-5-5-5--0-0-0-0---0--------|
D|-5-5-5-5--0-0-0-0---------------4-4-4-4-5-|-5-5-5--0-0-0-0------------|

(Guitar 1) 
(Lead, w/ Overdrive and Delay)
e|-----------------------------------|-----------18---------------------|
B|-20-22-18-18~18~18~18~20-22-18-18~-|-18~18~19~---21-20-18-18~18~18~18~|
G|---------------------20------------|---------20-----------------------|
D|-----------------------------------|----------------------------------|
A|-----------------------------------|----------------------------------|
D|-----------------------------------|----------------------------------|

e|---18------------------------------|----------------------------------|
B|-----21-20-18-18~18~18~18~16-18-20-|18-18~18~18~18~-16-18-20-18-18~18~|
G|-20----------------------20--------|--------------20------------------|
D|-----------------------------------|----------------------------------|
A|-----------------------------------|----------------------------------|
D|-----------------------------------|----------------------------------|

e|---------18------------------------|-18--------------------------18---|       
B|-18~18~----21-20-18-18~18~18~18~---|---21-20-18-18~18~18~18~--20--18--|
G|--------------------------------20-|----------------------------------|
D|-----20-20-------------------------|----------------------------------|
A|-----------------------------------|----------------------------------|
D|-----------------------------------|----------------------------------|

e|--------------------18-------------|---------18-----------------------|
B|-18-18~18~18~18~--20--18-18-18~18~-|-18~18~----21-20-18-18~18~18~18~--|
G|----------------20-----------------|-------20-------------------------|
D|-----------------------------------|----------------------------------|
A|-----------------------------------|----------------------------------|
D|-----------------------------------|----------------------------------|

e|------18---------------------------|----------------------------------|
B|-18~----21-20-16-16~16~16~16~--16--|-18-20-16~16~16~16~16~--16-18-20--|
G|----20-----------------------------|----------------------20----------|
D|-----------------------------20----|----------------------------------|
A|-----------------------------------|----------------------------------|
D|-----------------------------------|----------------------------------|

                         +
e|-----------------------------------|
B|-18-18~18~18~18~------18~----------|
G|-----------------------------------|
D|----------------20-20--------------|
A|-----------------------------------|
D|-----------------------------------|

[Outro]
Staring at the sun
A love so strong it hurts
Staring at the sun
A love so strong it hurts...


**************************************

| ~    Vibrato 
| +   Harmonic

**************************************
Suggest correction
Creating personal tab
Creating personal tab
You can edit any tab online and save it as your Personal.

You can edit, replace or remove any tab part or add personal notes – all changes will be seen only by you.

Personal tabs can be accessed anytime from any device, even offline.
Learn more »
Give kudos to tab author, rate the tab!
1 2 3 4 5
comments
print report bad tab
guest
You may want to rate the tab now too:
select rating
Wanna post a correction for this tab? Suggest correction