Oops, an error
Loading. Please wait.

Flying Tab

version 1
version 1

Whole song

Interactive

27,052 views 30 this week
1 commentread comment
1 2 3 4 5
x 6
add to favorites
launch autoscroll
font size
0
reset
how to read this tab
guitar tuner
Autoscroll
slow
fast
+/-
esc
set tempo
stop
Author
[Intro] (remember.. there is a capo at 3rd freat, so if you don't have it, the first note B|-5 it's B|8
(Gtr 2)
E|-------------------------------------------|
B|-5----------5---0-1-0-1s5------------5--0--|
G|-----2-5-4--------------------2-4-5-4------|
D|---2------2-----------------2--------2-----|
A|-------------------------------------------|
E|-------------------------------------------|

E|------------------|
B|-1-5------------5-|
G|-----2-4-5--4-----|
D|--------------2---|
A|------------------|
E|------------------|

(Riff at 1:41)
E|---15------15-----15------------------|
B|-16---16-15--15-16--16-15-12-13-12----|
G|--------------------------------------|
D|--------------------------------------|
A|--------------------------------------|
E|--------------------------------------|

[Solo] 
(at 3:33) 
(in this part the capo isn't needed)
E|-13-11-11-10-10------|
B|----------------13---|
G|---------------------|
D|---------------------|
A|---------------------|
E|---------------------|

E|11-10-10-7-7---------|
B|------------7-8------|
G|---------------------|
D|---------------------|
A|---------------------|
E|---------------------|

(then at 4:14)
E|-16-15-13-15-13---13--------------------|
B|----------------16--16-15-13-15-13------|
G|----------------------------------------|
D|----------------------------------------|
A|----------------------------------------|
E|----------------------------------------|

(at 4:16)
E|-18-16-15-16-15--15------------------|
B|---------------18--18-16-15-16-15----|
G|-------------------------------------|
D|-------------------------------------|
A|-------------------------------------|
E|-------------------------------------|

(at 4:19)
E|-16-15-13-15-13---13--------------------|
B|----------------16--16-15-13-15-13------|
G|----------------------------------------|
D|----------------------------------------|
A|----------------------------------------|
E|----------------------------------------|

[Solo] 
(in this part the capo isn't needed)
E|-13-11-11-10-10------|
B|----------------13---|
G|---------------------|
D|---------------------|
A|---------------------|
E|---------------------|

E|11-10-10-7-7---------|
B|------------7-8------|
G|---------------------|
D|---------------------|
A|---------------------|
E|---------------------|

[Outro]
E|-10s11s10-8-6--6s8s6-4-3------------------------|
B|----------------------------4s6-4-6-4-4---3-4-6-|
G|------------------------------------------------|
D|------------------------------------------------|
A|------------------------------------------------|
E|------------------------------------------------|
Suggest correction
comments
print report bad tab
1 comment total.
0 reply
silly hats 50 Jul 20, 2009 12:50 AM

This song has such a nice melody

guest
You may want to rate the tab now too:
select rating
Wanna post a correction for this tab? Suggest correction