Oops, an error
Loading. Please wait.

Fragile Dreams guitar pro

version 4
version 4

Whole song

Interactive

6,448 views 9 this week
2 commentsread comments
1 2 3 4 5
x 4
add to favorites
guitar tuner
Autoscroll
slow
fast
+/-
esc
set tempo
stop
File Format
Filesize
Instruments
.gp5
66 Kb
rhythm_guitars #2, lead_guitars, basses, percussions, keyboards, others
"Fragile Dreams"
demo version
Play now

or get full version for Free

×
Get full version now!
Learn and play this song
in Tab Pro
Try for free

or get $10 off Welcome Bonus

Get welcome bonus
Get access to Tab Pro version of “Fragile Dreams”!
Tab Pro is a premium guitar tab service, available on PC, Mac, iOS and Android
TRY FOR FREE
Your download will start in 7 seconds
×
Like this song? We have more! Follow us on Facebook for daily tips, lessons and other guitar-related content.
To download “Fragile Dreams” Guitar Pro tab click button below
Please note that you must have Guitar Pro software installed on your
computer in order to view this file.
Suggest correction
comments
report bad tab
2 comments total.
0 reply
Ahmed_Ayubee 254 Jan 15, 2008 05:28 AM

the arpigo on the verse is not correct..the root keeps changing..
as well as the
bass..
e-------------------------------------------------------------
b-----------------------------------------------
--------------
g-------------------------------------------------------------
d--------5-----------5-----------5------
-5-------5------------
a----5-------5---5------5----5------5--------5-------5---5----
e--3---3---3---5---5---5---6---6
---8---8---8---8---8---8------

0 reply
hammercs 395 Sep 24, 2013 12:49 PM

even worse than the other one, at least at the acoustics. this is such a simple song, how can 4 tries not even come close?

guest