Oops, an error
Loading. Please wait.

Ghosts Live tab

37 views 1 this week
no commentswrite comment
1 2 3 4 5
3 more votes to show rating
add to favorites
×
Save as Personal and add changes to this tab that will be seen only by you. Learn more ›
×
You can save this tab as Personal to edit and correct it or add notes. All changes will be seen only by you. Learn more »
launch autoscroll
font size
0
reset
how to read this tab
guitar tuner
edit
Autoscroll
slow
fast
+/-
esc
set tempo
stop
Ghosts (Live Version)
The Optimist (2017)
Anathema
Cover by Darth_Revan_

Guitar 1: crunchy clean Capo 2nd fret

https://www.youtube.com/watch?v=5XEi-oUtD7c

This is a pretty easy song, the whole structure for lead is I, II sections, repeat until the end, guitar 2
is an acoustic guitar with these chords, have fun :)

Guitar 2 (acoustic) capo in 2nd fret

    Am7      C       Am    Asus2    G/A
eb|--0--| |--0--| |--0--| |--0--| |-----|
Bb|--1--| |--1--| |--1--| |--0--| |--0--|
Gb|--0--| |--0--| |--2--| |--2--| |--0--|
Db|--2--| |--2--| |--2--| |--2--| |--0--|
Ab|--0--| |--3--| |--0--| |--0--| |--0--|
Eb|-----| |-----| |-----| |-----| |-----|


[Intro]

I)

eb|-----------------|-----------------|
Bb|-----------------|-----------------|
Gb|-4--2--0---------|-4--2--0---------| x2
Db|---------4--2--0-|---------4--2--0-|
Ab|-----------------|-----------------|
Eb|-----------------|-----------------|

II)

eb|-0-0--0-0--------|
Bb|-1-1--1-1--1-0-0-|
Gb|-0-0--0-0--2-2-0-| x3
Db|-----------2-2-0-|
Ab|-----------0-0-0-|
Eb|-----------------|

      I
You, saw you!
Yes you, saw you.
        II
Trick of the light,
stop for the night.
Tired and confused!

       Am7
Saw you, saw you!

       Am7
Slow down, 
slow down.
Leave, 
slow down.

C  Am    Asus2 G/A C
   Trick of    the   light,
Am   Asus2 G/A C
stop for   the   night.
Am    Asus2 G/A C
Tired and   con - fused,
  Am Asus2 G/A C
reminded   of    you.

C Am    Asus2 G/A C
A trick of    the   light,
Am   Asus2 G/A C
stop for   the   night.
Am    Asus2 G/A C
Tired and   con - fused!

Asus2
Saw you...

            
            
Suggest correction
Creating personal tab
Creating personal tab
You can edit any tab online and save it as your Personal.

You can edit, replace or remove any tab part or add personal notes – all changes will be seen only by you.

Personal tabs can be accessed anytime from any device, even offline.
Learn more »
Give kudos to tab author, rate the tab!
1 2 3 4 5
comments
print report bad tab
guest
You may want to rate the tab now too:
select rating
Wanna post a correction for this tab? Suggest correction