Oops, an error
Loading. Please wait.

How Fortunate The Man With None Tab

617 views 3 this week
1 commentread comment
1 2 3 4 5
3 more votes to show rating
add to favorites
launch autoscroll
font size
0
reset
how to read this tab
guitar tuner
Autoscroll
slow
fast
+/-
esc
set tempo
stop
Help us to improve Ultimate-Guitar.com Take our survey!
×
Author
Difficulty
intermediate
I tabbed out this cover of a song by my favorite artist>>Dead Can Dance :D
here it is:

intro:

e----------------------------------------------------------------------|
b----------------------------------------------------------------------|
g----------------------------------------------------------------------|
d------5-------3---------------5-----3---------------------------------|
a--3-------6------5--6--1--3------6-----5--6--1------------------------|
E----------------------------------------------------------------------|

main riff:

e----------3----------------------------------------------------------|
b----------------4------6-----3----4----------------------------------|
g----5----------------------------------3-----------------------------|
d-------------------3-------------------------------------------------|
a-3----5------6------------5----6----1--------------------------------|
e---------------------------------------------------------------------|

good luck!
Suggest correction
Give kudos to tab author, rate the tab!
1 2 3 4 5
comments
print report bad tab
1 comment total.
0 reply
countosuicido 149 Nov 22, 2016 10:20 AM

Alternate fingering that I use, makes it easier to let the notes ring out

intro:

e-------------------------------------------------------|
b-------------------------------------------------------|
g-------------------------------------------------------|
d-------------------------------------------------------|
a------10------8------6----------10------8--------------|
E--8-------11-----10-----6----8-------11-----10----6----|

guest
You may want to rate the tab now too:
select rating
Wanna post a correction for this tab? Suggest correction