Oops, an error
Loading. Please wait.

Leaving It Behind tab

127 views 18 this week
no commentswrite comment
1 2 3 4 5
2 more votes to show rating
add to favorites
×
Save as Personal and add changes to this tab that will be seen only by you. Learn more ›
×
You can save this tab as Personal to edit and correct it or add notes. All changes will be seen only by you. Learn more »
launch autoscroll
font size
0
reset
how to read this tab
guitar tuner
edit
Autoscroll
slow
fast
+/-
esc
set tempo
stop
About this tab version
I believe this is the frist tab of this song. Was this info helpful? Yes No
Artist: Anathema
Song: Leaving It Behind
Album: The Optimist(2017) 

This is one of the shortest Anathema songs
Just play it with a Light overdrive, have fun :D

[Intro/Main riff]
(Guitar 1, 2)
Eb|--0--0--0--0--0-|-0--0--0--0--0--|--0--0--0--0--0-|-0--0--0--0--0--|
Bb|---0--0--0--0--0|--0--0--0--0--0-|---0--0--0--0--0|--0--0--0--0--0-|
Gb|----------------|----------------|----------------|----------------|
Db|----------------|----------------|----------------|----------------|
Ab|-7/-3--5--5--5--|5--5--5--5/-3---|-2--2--2--2--2--|2--2--0--3--3---|
Eb|----------------|----------------|----------------|----------------|

Eb|--0--0--0--0--0-|-0--0--0--0--0--|--0--0--|
Bb|---0--0--0--0--0|--0--0--0--0--0-|---0--0-|
Gb|----------------|----------------|--------|
Db|----------------|----------------|--------|
Ab|-3--3--3--3--3\-|5--5--5--5--5---|-5\-7\--|
Eb|----------------|----------------|--------|

Tonight, let go!
Let go of everything inside.
Because I said so,
we’ll make everything inside alright.

(Guitar 1, 2) 
Eb|--0--0--0--0--0-|-0--0--0--0--0--|--0--0--0--0--0-|-0--0--0--0--0--|
Bb|---0--0--0--0--0|--0--0--0--0--0-|---0--0--0--0--0|--0--0--0--0--0-|
Gb|----------------|----------------|----------------|----------------|(x2)
Db|----------------|----------------|----------------|----------------|
Ab|-7/-3--5--5--5--|5--5--5--5/-3---|-2--2--2--2--2--|2--2--0--3--3---| 
Eb|----------------|----------------|----------------|----------------|

Eb|--0--0--0--0--0-|-0--0--0--0--0--|--0--0--|
Bb|---0--0--0--0--0|--0--0--0--0--0-|---0--0-|
Gb|----------------|----------------|--------|
Db|----------------|----------------|--------|
Ab|-3--3--3--3--3\-|5--5--5--5--5---|-5\-7\--|
Eb|----------------|----------------|--------|

Because I am leaving it behind,
stop feeling dead inside tonight.
Because I’m leaving it behind,
stop feeling satisfied inside.

(Guitar 1, 2)
Eb|--0--0--0--0--0-|-0--0--0--0--0--|--0--0--0--0--0-|-0--0--0--0--0--|
Bb|---0--0--0--0--0|--0--0--0--0--0-|---0--0--0--0--0|--0--0--0--0--0-|
Gb|----------------|----------------|----------------|----------------|
Db|-7/-3--5--5--5--|5--5--5--5/-3---|-2--2--2--2--2--|2--2--0--3--3---|(x2)
Ab|----------------|----------------|----------------|----------------|
Eb|----------------|----------------|----------------|----------------|

Eb|--0--0--0--0--0-|-0--0--0--0--0--|--0--0--|
Bb|---0--0--0--0--0|--0--0--0--0--0-|---0--0-|
Gb|----------------|----------------|--------|
Db|-3--3--3--3--3\-|5--5--5--5--5---|-5\-7\--|
Ab|----------------|----------------|--------|
Eb|----------------|----------------|--------|

The lies, they know!
They know every little, 
thing inside.

But I said no!
I’ll make everything, 
inside alright.

(Guitar 1, 2) 
Eb|--0--0--0--0--0-|-0--0--0--0--0--|--0--0--0--0--0-|-0--0--0--0--0--|
Bb|---0--0--0--0--0|--0--0--0--0--0-|---0--0--0--0--0|--0--0--0--0--0-|
Gb|----------------|----------------|----------------|----------------|
Db|----------------|----------------|----------------|----------------| (x2)
Ab|-7/-3--5--5--5--|5--5--5--5/-3---|-2--2--2--2--2--|2--2--0--3--3---|
Eb|----------------|----------------|----------------|----------------|

Eb|--0--0--0--0--0-|-0--0--0--0--0--|--0--0--|
Bb|---0--0--0--0--0|--0--0--0--0--0-|---0--0-|
Gb|----------------|----------------|--------|
Db|----------------|----------------|--------|
Ab|-3--3--3--3--3\-|5--5--5--5--5---|-5\-7\--|
Eb|----------------|----------------|--------|

[Chorus]

Because I am leaving it behind,
stop feeling dead inside tonight.
Because I’m leaving it behind,
stop feeling satisfied inside.

(Guitar 1)
Eb|--0--0--0--0--0-|-0--0--0--0--0--|--0--0--0--0--0-|-0--0--0--0--0--|
Bb|---0--0--0--0--0|--0--0--0--0--0-|---0--0--0--0--0|--0--0--0--0--0-|
Gb|----------------|----------------|----------------|----------------|(x2)
Db|-7/-3--5--5--5--|5--5--5--5/-3---|-2--2--2--2--2--|2--2--0--3--3---|
Ab|----------------|----------------|----------------|----------------|
Eb|----------------|----------------|----------------|----------------|

Eb|--0--0--0--0--0-|-0--0--0--0--0--|--0--0--|
Bb|---0--0--0--0--0|--0--0--0--0--0-|---0--0-|
Gb|----------------|----------------|--------|
Db|-3--3--3--3--3\-|5--5--5--5--5---|-5\-7\--|
Ab|----------------|----------------|--------|
Eb|----------------|----------------|--------|

(Guitar 2)
         (Tremolo Picking)
Eb|---------------------------|---------------------------|
Bb|---------------------------|--------------\17---17-----|
Gb|-9----\14---\16---/7-------|-9----\14-------(v)---(v)--|(x2)
Db|---(v)---(v)---(v)--(v)----|--(V)----(v)--\14---14-----|
Ab|-7----\12---\14---/9-------|-7----\12------------------|
Eb|---------------------------|---------------------------|

[Electronic pause]

Tonight, let go!
Let go of everything inside.
Because I said so,
we’ll make everything inside alright.

(Guitar 1, 2)
Eb|--0--0--0--0--0-|-0--0--0--0--0--|--0--0--0--0--0-|-0--0--0--0--0--|
Bb|---0--0--0--0--0|--0--0--0--0--0-|---0--0--0--0--0|--0--0--0--0--0-|
Gb|----------------|----------------|----------------|----------------|
Db|----------------|----------------|----------------|----------------| (x2)
Ab|-7/-3--5--5--5--|5--5--5--5/-3---|-2--2--2--2--2--|2--2--0--3--3---|
Eb|----------------|----------------|----------------|----------------|

Eb|--0--0--0--0--0-|-0--0--0--0--0--|--0--0--|
Bb|---0--0--0--0--0|--0--0--0--0--0-|---0--0-|
Gb|----------------|----------------|--------|
Db|----------------|----------------|--------|
Ab|-3--3--3--3--3\-|5--5--5--5--5---|-5\-7\--|
Eb|----------------|----------------|--------|

[Outro]

Because I am leaving it behind,
stop feeling dead inside tonight.
Because I’m leaving it behind,
stop feeling satisfied inside.

(Guitar 1)
Eb|--0--0--0--0--0-|-0--0--0--0--0--|--0--0--0--0--0-|-0--0--0--0--0--|
Bb|---0--0--0--0--0|--0--0--0--0--0-|---0--0--0--0--0|--0--0--0--0--0-|
Gb|----------------|----------------|----------------|----------------|(x2)
Db|-7/-3--5--5--5--|5--5--5--5/-3---|-2--2--2--2--2--|2--2--0--3--3---|
Ab|----------------|----------------|----------------|----------------|
Eb|----------------|----------------|----------------|----------------|

Eb|--0--0--0--0--0-|-0--0--0--0--0--|--0--0--|
Bb|---0--0--0--0--0|--0--0--0--0--0-|---0--0-|
Gb|----------------|----------------|--------|
Db|-3--3--3--3--3\-|5--5--5--5--5---|-5\-7\--|
Ab|----------------|----------------|--------|
Eb|----------------|----------------|--------|

(Guitar 2)
         (Tremolo Picking)
Eb|---------------------------|---------------------------|
Bb|---------------------------|--------------\17---17-----|
Gb|-9----\14---\16---/7-------|-9----\14-------(v)---(v)--|(x2)
Db|---(v)---(v)---(v)--(v)----|--(V)----(v)--\14---14-----|
Ab|-7----\12---\14---/9-------|-7----\12------------------|
Eb|---------------------------|---------------------------|


************************************

| b  Bend
| /  Slide up
| \  Slide down

************************************

            
            
Suggest correction
Creating personal tab
Creating personal tab
You can edit any tab online and save it as your Personal.

You can edit, replace or remove any tab part or add personal notes – all changes will be seen only by you.

Personal tabs can be accessed anytime from any device, even offline.
Learn more »
Give kudos to tab author, rate the tab!
1 2 3 4 5
comments
print report bad tab
guest
You may want to rate the tab now too:
select rating
Wanna post a correction for this tab? Suggest correction