Oops, an error
Loading. Please wait.

Springfield tab

version 1
version 1

Whole song

  • Includes guitar and keyboards parts.
  • I think this is the most accurate version of this song.
160 views 24 this week
no commentswrite comment
1 2 3 4 5
3 more votes to show rating
add to favorites
×
Save as Personal and add changes to this tab that will be seen only by you. Learn more ›
×
You can save this tab as Personal to edit and correct it or add notes. All changes will be seen only by you. Learn more »
launch autoscroll
font size
0
reset
how to read this tab
guitar tuner
edit
Autoscroll
slow
fast
+/-
esc
set tempo
stop
About this tab version
Includes guitar and keyboards parts. Was this info helpful? Yes No
[Intro]
  G1
e|----|--------------------------------|--------------------------------|
B|----|--------------------------------|--------------------------------|
G|3/5-|------------5\3-----------------|----------------------------3h5-|
D|----|--------------------------------|--------------------------------|
A|----|3---------------1---------------|--------------------------------|
E|----|--------------------------------|--------------------------------|
  + a  1 e + a 2 e + a 3 e + a 4 e + a etc. 
e|--------------------------------|--------------------------------|
B|--------------------------------|--------------------------------|
G|------------3h5-----------------|----------------------------3/5-|
D|--------------------------------|--------------------------------|
A|3---------------3---------------|--------------------------------|
E|--------------------------------|--------------------------------|

e|--------------------------------|--------------------------------|
B|--------------------------------|--------------------------------|
G|------------5\3-----------------|----------------------------3h5-|
D|--------------------------------|--------------------------------|
A|3---------------1---------------|--------------------------------|
E|--------------------------------|--------------------------------|


e|--------------------------------|--------------------------------|
B|--------------------------------|--------------------------------|
G|------------3h5-----------------|----------------------------3/5-|
D|--------------------------------|--------------------------------|
A|3---------------3---------------|--------------------------------|
E|--------------------------------|--------------------------------|
 |Piano/Keyboard
e|--------------------------------|--------------------------------|
B|--------------------------------|--------------------------------|
G|--------------------------------|----------------------------3-5-|
D|--------------------------------|--------------------------------|
A|--------------------------------|--------------------------------|
E|--------------------------------|--------------------------------|


e|--------------------------------|--------------------------------|
B|--------------------------------|--------------------------------|
G|------------5\3-----------------|----------------------------3h5-|
D|--------------------------------|--------------------------------|
A|3---------------1---------------|--------------------------------|
E|--------------------------------|--------------------------------|
 |
e|--------------------------------|--------------------------------|
B|------------1-------------------|--------------------------------|
G|--------------3-----------------|------------------------------5-|
D|1---------------0---------------|----------------------------8---|
A|3---------------1---------------|--------------------------------|
E|4---------------3---------------|--------------------------------|

                                                        Drums enter
e|--------------------------------|--------------------------------|
B|--------------------------------|--------------------------------|
G|------------3h5-----------------|----------------------------3/5-|
D|--------------------------------|--------------------------------|
A|3---------------3---------------|--------------------------------|
E|--------------------------------|--------------------------------|
 |
e|--------------------------------|------------1-------3-----------|
B|--------------1---------4---3---|----1---------------------------|
G|------------3-------------------|--------------------------------|
D|1---------------1---------------|--------------------------------|
A|3---------------3---------------|--------------------------------|
E|----------------3---------------|--------------------------------|


e|--------------------------------|--------------------------------|
B|--------------------------------|--------------------------------|
G|------------7\3-----------------|----------------------------3h5-|
D|--------------------------------|--------------------------------|
A|3---------------1---------------|--------------------------------|
E|--------------------------------|--------------------------------|
 |
e|(3)-----------------------------|--------------------------------|
B|--------------------------------|--------------------------------|
G|0---------------0---------------|------------------------0---3-5-|
D|1---------------0---------------|--------------------------------|
A|3---------------1---------------|--------------------------------|
E|4---------------3---------------|--------------------------------|


e|--------------------------------|--------------------------------|
B|--------------------------------|--------------------------------|
G|------------3h5-----------------|----------------------------3/5-|
D|--------------------------------|--------------------------------|
A|3---------------3---------------|--------------------------------|
E|--------------------------------|--------------------------------|
 |
e|--------------------------------|------------1-------------------|
B|--------------1---------4---3---|----1---------------1-----------|
G|0-----------3---0---------------|--------------------------------|
D|1---------------1---------------|--------------------------------|
A|3---------------3---------------|--------------------------------|
E|----------------3---------------|--------------------------------|


e|--------------------------------|--------------------------------|
B|--------------------------------|--------------------------------|
G|------------5\3-----------------|----------------------------3h5-|
D|--------------------------------|--------------------------------|
A|3---------------1---------------|--------------------------------|
E|--------------------------------|--------------------------------|
 |
e|--------------------------------|--------------------------------|
B|--------------------------------|--------------------------------|
G|0---------------0---------------|--------------------------------|
D|1---------------0---------------|--------------------------------|
A|3---------------1---------------|--------------------------------|
E|4---------------3---------------|--------------------------------|

[Verse]
                                   "How did I get here?"
e|--------------------------------|--------------------------------|
B|--------------------------------|--------------------------------|
G|------------3h5-----------------|----------------------------3/5-|
D|--------------------------------|--------------------------------|
A|3---------------3---------------|--------------------------------|
E|--------------------------------|--------------------------------|
 |
e|--------------------------------|--------------------------------|
B|--------------------------------|--------------------------------|
G|0---------------0---------------|--------------------------------|
D|1---------------1---------------|--------------------------------|
A|3---------------3---------------|--------------------------------|
E|----------------3---------------|--------------------------------|


e|--------------------------------|--------------------------------|
B|--------------------------------|--------------------------------|
G|------------5\3-----------------|----------------------------3h5-|
D|--------------------------------|--------------------------------|
A|3---------------1---------------|--------------------------------|
E|--------------------------------|--------------------------------|
 |
e|--------------------------------|--------------------------------|
B|--------------------------------|--------------------------------|
G|0---------------0---------------|--------------------------------|
D|1---------------0---------------|--------------------------------|
A|3---------------1---------------|--------------------------------|
E|4---------------3---------------|--------------------------------|

e|--------------------------------|--------------------------------|
B|--------------------------------|--------------------------------|
G|------------3h5-----------------|----------------------------3/5-|
D|--------------------------------|--------------------------------|
A|3---------------3---------------|--------------------------------|
E|--------------------------------|--------------------------------|
 |
e|--------------------------------|------------1-------------------|
B|------------------------4---3---|----1---------------1-----------|
G|0---------------0---------------|--------------------------------|
D|1---------------1---------------|--------------------------------|
A|3---------------3---------------|--------------------------------|
E|----------------3---------------|--------------------------------|


e|--------------------------------|--------------------------------|
B|--------------------------------|--------------------------------|
G|------------5\3-----------------|----------------------------3h5-|
D|--------------------------------|--------------------------------|
A|3---------------1---------------|--------------------------------|
E|--------------------------------|--------------------------------|
 |
e|--------------------------------|--------------------------------|
B|--------------------------------|--------------------------------|
G|0---------------0---------------|--------------------------------|
D|1---------------0---------------|--------------------------------|
A|3---------------1---------------|--------------------------------|
E|4---------------3---------------|--------------------------------|

e|--------------------------------|--------------------------------|
B|--------------------------------|--------------------------------|
G|------------3h5-----------------|----------------------------3/5-|
D|--------------------------------|--------------------------------|
A|3---------------3---------------|--------------------------------|
E|--------------------------------|--------------------------------|
 |
e|--------------------------------|--------------------------------|
B|--------------------------------|--------------------------------|
G|0---------------0---------------|--------------------------------|
D|1---------------1---------------|--------------------------------|
A|3---------------3---------------|--------------------------------|
E|----------------3---------------|--------------------------------|


e|--------------------------------|--------------------------------|
B|--------------------------------|--------------------------------|
G|------------5\3-----------------|----------------------------3h5-|
D|--------------------------------|--------------------------------|
A|3---------------1---------------|--------------------------------|
E|--------------------------------|--------------------------------|
 |
e|--------------------------------|--------------------------------|
B|--------------------------------|--------------------------------|
G|0---------------0---------------|--------------------------0-3-5-|
D|1---------------0---------------|--------------------------------|
A|3---------------1---------------|--------------------------------|
E|4---------------3---------------|--------------------------------|


e|--------------------------------|--------------------------------|
B|--------------------------------|--------------------------------|
G|------------3h5-----------------|----------------------------3/5-|
D|--------------------------------|--------------------------------|
A|3---------------3---------------|--------------------------------|
E|--------------------------------|--------------------------------|
 |
e|--------------------------------|------------1-------------------|
B|------------------------4---3---|----1---------------1-----------|
G|0---------------0---------------|--------------------------------|
D|1---------------1---------------|--------------------------------|
A|3---------------3---------------|--------------------------------|
E|----------------3---------------|--------------------------------|


e|--------------------------------|--------------------------------|
B|--------------------------------|--------------------------------|
G|------------5\3-----------------|----------------------------3h5-|
D|--------------------------------|--------------------------------|
A|3---------------1---------------|--------------------------------|
E|--------------------------------|--------------------------------|
 |
e|--------------------------------|--------------------------------|
B|--------------------------------|--------------------------------|
G|0---------------0---------------|--------------------------------|
D|1---------------0---------------|--------------------------------|
A|3---------------1---------------|--------------------------------|
E|4---------------3---------------|--------------------------------|

e|--------------------------------|--------------------------------|
B|--------------------------------|--------------------------------|
G|------------3h5-----------------|----------------------------3/5-|
D|--------------------------------|--------------------------------|
A|3---------------3---------------|--------------------------------|
E|--------------------------------|--------------------------------|
 |
e|--------------------------------|------------1-------3-----------|
B|------------------------4---3---|----1---------------------------|
G|0---------------0---------------|--------------------------------|
D|1---------------1---------------|--------------------------------|
A|3---------------3---------------|--------------------------------|
E|----------------3---------------|--------------------------------|
 

e|--------------------------------|--------------------------------|
B|--------------------------------|--------------------------------|
G|------------5\3-----------------|----------------------------3h5-|
D|--------------------------------|--------------------------------|
A|3---------------1---------------|--------------------------------|
E|--------------------------------|--------------------------------|
 |
e|--------------------------------|--------------------------------|
B|--------------------------------|--------------------------------|
G|0---------------0---------------|--------------------------------|
D|1---------------0---------------|--------------------------------|
A|3---------------1---------------|--------------------------------|
E|4---------------3---------------|--------------------------------|


e|--------------------------------|--------------------------------|
B|--------------------------------|--------------------------------|
G|------------3h5-----------------|----------------------------3/5-|
D|--------------------------------|--------------------------------|
A|3---------------3---------------|--------------------------------|
E|--------------------------------|--------------------------------|
 |
e|--------------------------------|------------1-------------------|
B|------------------------4---3---|----1---------------1-----------|
G|0---------------0---------------|--------------------------------|
D|1---------------1---------------|--------------------------------|
A|3---------------3---------------|--------------------------------|
E|----------------3---------------|--------------------------------|


e|--------------------------------|--------------------------------|
B|--------------------------------|--------------------------------|
G|------------5\3-----------------|----------------------------3h5-|
D|--------------------------------|--------------------------------|
A|3---------------1---------------|--------------------------------|
E|--------------------------------|--------------------------------|
 |
e|--------------------------------|--------------------------------|
B|--------------------------------|--------------------------------|
G|0---------------0---------------|--------------------------------|
D|1---------------0---------------|--------------------------------|
A|3---------------1---------------|--------------------------------|
E|4---------------3---------------|--------------------------------|


e|--------------------------------|--------------------------------|
B|--------------------------------|--------------------------------|
G|------------3h5-----------------|----------------------------3/5-|
D|--------------------------------|--------------------------------|
A|3---------------3---------------|--------------------------------|
E|--------------------------------|--------------------------------|
 |                                                        2:30
e|--------------------------------|------------1-------3-----------|
B|------------------------4---3---|----1---------------------------|
G|0---------------0---------------|--------------------------------|
D|1---------------1---------------|--------------------------------|
A|3---------------3---------------|--------------------------------|
E|----------------3---------------|--------------------------------|


e|--------------------------------|--------------------------------|
B|--------------------------------|--------------------------------|
G|------------5\3-----------------|----------------------------3h5-|
D|--------------------------------|--------------------------------|
A|3---------------1---------------|--------------------------------|
E|--------------------------------|--------------------------------|
 |
e|--------------------------------|--------------------------------|
B|--------------------------------|--------------------------------|
G|0---------------0---------------|--------------------------------|
D|1---------------0---------------|--------------------------------|
A|3---------------1---------------|--------------------------------|
E|4---------------3---------------|--------------------------------|

[Transition]

e|--------------------------------|--------------------------------|
B|--------------------------------|--------------------------------|
G|------------3h5-----------------|----------------------------3/5-|
D|--------------------------------|--------------------------------|
A|3---------------3---------------|--------------------------------|
E|--------------------------------|--------------------------------|
 |
e|------------------------6-------|--------------------------------|
B|----------------------------6---|----8---------------------------|
G|0---------------0---------------|--------------------------------|
D|1---------------1---------------|--------------------------------|
A|3---------------3---------------|--------------------------------|
E|----------------3---------------|--------------------------------|

[Instrumental Break]
  G1 (tremolo picks for this entire section)
e|--------------------------------|--------------------------------|
B|--------------------------------|--------------------------------|
G|5----------------------/8---7---|----5------/10-----\5-----------|
D|--------------------------------|--------------------------------|
A|--------------------------------|--------------------------------|
E|--------------------------------|--------------------------------|
 |G2
e|--------------------------------|--------------------------------|
B|--------------------------------|--------------------------------|
G|5-5-5-5-5-5-5-5-5-5-5-5-5-5-5-5-|5-5-5-5-5-5-5-5-5-5-5-5-5-5-5-5-|
D|x-x-x-x-x-x-x-x-x-x-x-x-x-x-x-x-|x-x-x-x-x-x-x-x-x-x-x-x-x-x-x-x-|
A|3-3-3-3-3-3-3-3-3-3-3-3-3-3-3-3-|3-3-3-3-3-3-3-3-3-3-3-3-3-3-3-3-|
E|--------------------------------|--------------------------------|


e|--------------------------------|--------------------------------|
B|--------------------------------|--------------------------------|
G|(5)-------------3---------------|(3)-----------------------------|
D|--------------------------------|--------------------------------|
A|--------------------------------|--------------------------------|
E|--------------------------------|--------------------------------|
 |
e|--------------------------------|--------------------------------|
B|--------------------------------|--------------------------------|
G|5-5-5-5-5-5-5-5-3-3-3-3-3-3-3-3-|3-3-3-3-3-3-3-3-3-3-3-3-3-3-3-3-|
D|x-x-x-x-x-x-x-x-x-x-x-x-x-x-x-x-|x-x-x-x-x-x-x-x-x-x-x-x-x-x-x-x-|
A|3-3-3-3-3-3-3-3-1-1-1-1-1-1-1-1-|1-1-1-1-1-1-1-1-1-1-1-1-1-1-1-1-|
E|--------------------------------|--------------------------------|


e|--------------------------------|--------------------------------|
B|--------------------------------|--------------------------------|
G|5----------------------/8---7---|----5------/10-----/12----------|
D|--------------------------------|--------------------------------|
A|--------------------------------|--------------------------------|
E|--------------------------------|--------------------------------|
 |
e|--------------------------------|--------------------------------|
B|--------------------------------|--------------------------------|
G|5-5-5-5-5-5-5-5-5-5-5-5-5-5-5-5-|5-5-5-5-5-5-5-5-5-5-5-5-5-5-5-5-|
D|x-x-x-x-x-x-x-x-x-x-x-x-x-x-x-x-|x-x-x-x-x-x-x-x-x-x-x-x-x-x-x-x-|
A|3-3-3-3-3-3-3-3-3-3-3-3-3-3-3-3-|3-3-3-3-3-3-3-3-3-3-3-3-3-3-3-3-|
E|--------------------------------|--------------------------------|


e|--------------------------------|--------------------------------|
B|--------------------------------|--------------------------------|
G|(12)------------10--------------|(10)----------------------------|
D|--------------------------------|--------------------------------|
A|--------------------------------|--------------------------------|
E|--------------------------------|--------------------------------|
 |
e|--------------------------------|--------------------------------|
B|--------------------------------|--------------------------------|
G|5-5-5-5-5-5-5-5-3-3-3-3-3-3-3-3-|3-3-3-3-3-3-3-3-3-3-3-3-3-3-3-3-|
D|x-x-x-x-x-x-x-x-x-x-x-x-x-x-x-x-|x-x-x-x-x-x-x-x-x-x-x-x-x-x-x-x-|
A|3-3-3-3-3-3-3-3-1-1-1-1-1-1-1-1-|1-1-1-1-1-1-1-1-1-1-1-1-1-1-1-1-|
E|--------------------------------|--------------------------------|


e|--------------------------------|--------------------------------|
B|--------------------------------|--------------------------------|
G|12------------------------------|(12)---------------------------/|
D|--------------------------------|--------------------------------|
A|--------------------------------|--------------------------------|
E|--------------------------------|--------------------------------|
 |
e|--------------------------------|--------------------------------|
B|--------------------------------|------------6-6-6-6-8-8-8-8-8-8-|
G|5-5-5-5-5-5-5-5-5-5-5-5-8-8-7-7-|7-7-5-5-5-5---------------------|
D|--------------------------------|------------3-3-3-3-5-5-5-5-5-5-|
A|3-3-3-3-3-3-3-3-3-3-3-3-6-6-5-5-|5-5-3-3-3-3---------------------|
E|--------------------------------|--------------------------------|
 

e|--------------------------------|--------------------------------|
B|--------------------------------|--------------------------------|
G|17--------------15--------------|(15)----------------------------|
D|--------------------------------|--------------------------------|
A|15--------------13--------------|(13)----------------------------|
E|--------------------------------|--------------------------------|
 |
e|--------------------------------|--------------------------------|
B|--------------------------------|--------------------------------|
G|5-5-5-5-5-5-5-5-3-3-3-3-3-3-3-3-|3-3-3-3-3-3-3-3-3-3-3-3-3-3-3-3-|
D|x-x-x-x-x-x-x-x-x-x-x-x-x-x-x-x-|x-x-x-x-x-x-x-x-x-x-x-x-x-x-x-x-|
A|3-3-3-3-3-3-3-3-1-1-1-1-1-1-1-1-|1-1-1-1-1-1-1-1-1-1-1-1-1-1-1-1-|
E|--------------------------------|--------------------------------|


e|--------------------------------|--------------------------------|
B|--------------------------------|--------------------------------|
G|17------------------------------|(17)----------------------------|
D|--------------------------------|--------------------------------|
A|15------------------------------|(15)----------------------------|
E|--------------------------------|--------------------------------|
 |
e|--------------------------------|--------------------------------|
B|--------------------------------|------------6-6-6-6-8-8-8-8-8-8-|
G|5-5-5-5-5-5-5-5-5-5-5-5-8-8-7-7-|7-7-5-5-5-5---------------------|
D|--------------------------------|------------3-3-3-3-5-5-5-5-5-5-|
A|3-3-3-3-3-3-3-3-3-3-3-3-6-6-5-5-|5-5-3-3-3-3---------------------|
E|--------------------------------|--------------------------------|
(3:03)

e|--------------------------------|--------------------------------|
B|--------------------------------|--------------------------------|
G|17--------------15--------------|(15)----------------------------|
D|--------------------------------|--------------------------------|
A|--------------------------------|--------------------------------|
E|--------------------------------|--------------------------------|
 |
e|--------------------------------|--------------------------------|
B|--------------------------------|--------------------------------|
G|5-5-5-5-5-5-5-5-3-3-3-3-3-3-3-3-|3-3-3-3-3-3-3-3-3-3-3-3-3-3-3-3-|
D|x-x-x-x-x-x-x-x-x-x-x-x-x-x-x-x-|x-x-x-x-x-x-x-x-x-x-x-x-x-x-x-x-|
A|3-3-3-3-3-3-3-3-1-1-1-1-1-1-1-1-|1-1-1-1-1-1-1-1-1-1-1-1-1-1-1-1-|
E|--------------------------------|--------------------------------|


e|--------------------------------|--------------------------------|
B|--------------------------------|--------------------------------|
G|-----------------------\8---7---|----5------/10------12----------|
D|--------------------------------|--------------------------------|
A|--------------------------------|--------------------------------|
E|--------------------------------|--------------------------------|
 |
e|--------------------------------|--------------------------------|
B|--------------------------------|--------------------------------|
G|5-5-5-5-5-5-5-5-5-5-5-5-5-5-5-5-|5-5-5-5-5-5-5-5-5-5-5-5-5-5-5-5-|
D|x-x-x-x-x-x-x-x-x-x-x-x-x-x-x-x-|x-x-x-x-x-x-x-x-x-x-x-x-x-x-x-x-|
A|3-3-3-3-3-3-3-3-3-3-3-3-3-3-3-3-|3-3-3-3-3-3-3-3-3-3-3-3-3-3-3-3-|
E|--------------------------------|--------------------------------|


e|--------------------------------|--------------------------------|
B|--------------------------------|--------------------------------|
G|17--------------15--------------|(15)----------------------------|
D|--------------------------------|--------------------------------|
A|--------------------------------|--------------------------------|
E|--------------------------------|--------------------------------|
 |
e|--------------------------------|--------------------------------|
B|--------------------------------|--------------------------------|
G|5-5-5-5-5-5-5-5-3-3-3-3-3-3-3-3-|3-3-3-3-3-3-3-3-3-3-3-3-3-3-3-3-|
D|x-x-x-x-x-x-x-x-x-x-x-x-x-x-x-x-|x-x-x-x-x-x-x-x-x-x-x-x-x-x-x-x-|
A|3-3-3-3-3-3-3-3-1-1-1-1-1-1-1-1-|1-1-1-1-1-1-1-1-1-1-1-1-1-1-1-1-|
E|--------------------------------|--------------------------------|


e|-----------------------\11--10--|----8------/13-----\8-----------|
B|--------------------------------|--------------------------------|
G|--------------------------------|--------------------------------|
D|--------------------------------|--------------------------------|
A|--------------------------------|--------------------------------|
E|--------------------------------|--------------------------------|
 |
e|--------------------------------|--------------------------------|
B|--------------------------------|--------------------------------|
G|----------------5-5-5-5-5-5-5-5-|5-5-5-5-5-5-5-5-5-5-5-5-5-5-5-5-|
D|5-5-5-5-5-5-5-5-x-x-x-x-x-x-x-x-|x-x-x-x-x-x-x-x-x-x-x-x-x-x-x-x-|
A|x-x-x-x-x-x-x-x-3-3-3-3-3-3-3-3-|3-3-3-3-3-3-3-3-3-3-3-3-3-3-3-3-|
E|3-3-3-3-3-3-3-3-----------------|--------------------------------|


e|15------------------------------|--------------------------------|
B|--------------------------------|--------------------------------|
G|---------------\10----------8---|7-----------5---3-----------0---|
D|--------------------------------|--------------------------------|
A|--------------------------------|--------------------------------|
E|--------------------------------|--------------------------------|
 | 
e|--------------------------------|--------------------------------|
B|--------------------------------|--------------------------------|
G|5-5-5-5-5-5-5-5-3-3-3-3-3-3-3-3-|3-3-3-3-3-3-3-3-3-3-3-3-3-3-3-3-|
D|--------------------------------|--------------------------------|
A|3-3-3-3-3-3-3-3-1-1-1-1-1-1-1-1-|1-1-1-1-1-1-1-1-1-1-1-1-1-1-1-1-|
E|--------------------------------|--------------------------------|


e|--------------------------------|--------------------------------|
B|--------------------------------|--------------------------------|
G|(0)-------------5---------------|--------------------------------|
D|--------------------------------|--------------------------------|
A|--------------------------------|--------------------------------|
E|--------------------------------|--------------------------------|
 |
e|--------------------------------|--------------------------------|
B|--------------------------------|--------------------------------|
G|----------------5-5-5-5-5-5-5-5-|5-5-5-5-5-5-5-5-5-5-5-5-5-5-5-5-|
D|5-5-5-5-5-5-5-5-x-x-x-x-x-x-x-x-|x-x-x-x-x-x-x-x-x-x-x-x-x-x-x-x-|
A|x-x-x-x-x-x-x-x-3-3-3-3-3-3-3-3-|3-3-3-3-3-3-3-3-3-3-3-3-3-3-3-3-|
E|3-3-3-3-3-3-3-3-----------------|--------------------------------|


e|15--------------13--------------|--------------------------------|
B|--------------------------------|--------------------------------|
G|----------------------------8---|7-----------5---3-----------0---|
D|--------------------------------|--------------------------------|
A|--------------------------------|--------------------------------|
E|--------------------------------|--------------------------------|
 |
e|--------------------------------|--------------------------------|
B|--------------------------------|--------------------------------|
G|5-5-5-5-5-5-5-5-3-3-3-3-3-3-3-3-|3-3-3-3-3-3-3-3-3-3-3-3-3-3-3-3-|
D|--------------------------------|--------------------------------|
A|3-3-3-3-3-3-3-3-1-1-1-1-1-1-1-1-|1-1-1-1-1-1-1-1-1-1-1-1-1-1-1-1-|
E|--------------------------------|--------------------------------|


e|--------------------------------|--------------------------------|
B|--------------------------------|--------------------------------|
G|(0)-------------5---------------|--------------------------------|
D|--------------------------------|--------------------------------|
A|--------------------------------|--------------------------------|
E|--------------------------------|--------------------------------|
 |
e|--------------------------------|--------------------------------|
B|--------------------------------|--------------------------------|
G|----------------5-5-5-5-5-5-5-5-|5-5-5-5-5-5-5-5-5-5-5-5-5-5-5-5-|
D|5-5-5-5-5-5-5-5-x-x-x-x-x-x-x-x-|x-x-x-x-x-x-x-x-x-x-x-x-x-x-x-x-|
A|x-x-x-x-x-x-x-x-3-3-3-3-3-3-3-3-|3-3-3-3-3-3-3-3-3-3-3-3-3-3-3-3-|
E|3-3-3-3-3-3-3-3-----------------|--------------------------------|


  "Ayyye..."      Resume tremolo picking
e|15---------15\13----------------|(13)----------------------------|
B|--------------------------------|--------------------------------|
G|----REST------------------------|--------------------------------|
D|--------------------------------|--------------------------------|
A|--------------------------------|--------------------------------|
E|--------------------------------|--------------------------------|
 |
e|--------------------------------|--------------------------------|
B|--------------------------------|--------------------------------|
G|5---REST--------3-3-3-3-3-3-3-3-|3-3-3-3-3-3-3-3-3-3-3-3-3-3-3-3-|
D|x---------------x-x-x-x-x-x-x-x-|x-x-x-x-x-x-x-x-x-x-x-x-x-x-x-x-|
A|3---------------1-1-1-1-1-1-1-1-|1-1-1-1-1-1-1-1-1-1-1-1-1-1-1-1-|
E|--------------------------------|--------------------------------|


e|15------------------------------|(15)----------------------------|
B|--------------------------------|--------------------------------|
G|--------------------------------|--------------------------------|
D|--------------------------------|--------------------------------|
A|--------------------------------|--------------------------------|
E|--------------------------------|--------------------------------|
 |
e|--------------------------------|--------------------------------|
B|--------------------------------|--------------------------------|
G|5-5-5-5-5-5-5-5-5-5-5-5-5-5-5-5-|5-5-5-5-5-5-5-5-5-5-5-5-5-5-5-5-|
D|x-x-x-x-x-x-x-x-x-x-x-x-x-x-x-x-|x-x-x-x-x-x-x-x-x-x-x-x-x-x-x-x-|
A|3-3-3-3-3-3-3-3-3-3-3-3-3-3-3-3-|3-3-3-3-3-3-3-3-3-3-3-3-3-3-3-3-|
E|--------------------------------|--------------------------------|

  "Ayyye..."      Resume tremolo picking
e|15---------15\13----------------|(13)----------------------------|
B|--------------------------------|--------------------------------|
G|----REST------------------------|--------------------------------|
D|--------------------------------|--------------------------------|
A|--------------------------------|--------------------------------|
E|--------------------------------|--------------------------------|
 |
e|--------------------------------|--------------------------------|
B|--------------------------------|--------------------------------|
G|5---REST--------3-3-3-3-3-3-3-3-|3-3-3-3-3-3-3-3-3-3-3-3-3-3-3-3-|
D|x---------------x-x-x-x-x-x-x-x-|x-x-x-x-x-x-x-x-x-x-x-x-x-x-x-x-|
A|3---------------1-1-1-1-1-1-1-1-|1-1-1-1-1-1-1-1-1-1-1-1-1-1-1-1-|
E|--------------------------------|--------------------------------|


e|15------------------------------|(15)----------------------------|
B|--------------------------------|--------------------------------|
G|--------------------------------|--------------------------------|
D|--------------------------------|--------------------------------|
A|--------------------------------|--------------------------------|
E|--------------------------------|--------------------------------|
 |
e|--------------------------------|--------------------------------|
B|--------------------------------|--------------------------------|
G|5-5-5-5-5-5-5-5-5-5-5-5-5-5-5-5-|5-5-5-5-5-5-5-5-5-5-5-5-5-5-5-5-|
D|x-x-x-x-x-x-x-x-x-x-x-x-x-x-x-x-|x-x-x-x-x-x-x-x-x-x-x-x-x-x-x-x-|
A|3-3-3-3-3-3-3-3-3-3-3-3-3-3-3-3-|3-3-3-3-3-3-3-3-3-3-3-3-3-3-3-3-|
E|--------------------------------|--------------------------------|

[Outro]
  G1
e|15---------15\13----------------|(13)----------------------------|
B|--------------------------------|--------------------------------|
G|--------------------------------|--------------------------------|
D|--------------------------------|--------------------------------|
A|--------------------------------|--------------------------------|
E|--------------------------------|--------------------------------|
 |G2
e|--------------------------------|--------------------------------|
B|--------------------------------|--------------------------------|
G|5--------------\3---------------|----------------------------3h5-|
D|x---------------x---------------|--------------------------------|
A|3--------------\1---------------|--------------------------------|
E|--------------------------------|--------------------------------|
 |Keys
e|--------------------------------|--------------------------------|
B|--------------------------------|--------------------------------|
G|0---------------0---------------|--------------------------------|
D|1---------------0---------------|--------------------------------|
A|3---------------1---------------|--------------------------------|
E|4---------------3---------------|--------------------------------|

  G2
e|--------------------------------|--------------------------------|
B|--------------------------------|--------------------------------|
G|------------3h5-----------------|----------------------------3/5-|
D|--------------------------------|--------------------------------|
A|3---------------3---------------|--------------------------------|
E|--------------------------------|--------------------------------|
 |Keys
e|--------------------------------|--------------------------------|
B|--------------------------------|--------------------------------|
G|--------------------------------|----------------------------3-5-|
D|1---------------1---------------|--------------------------------|
A|3---------------3---------------|--------------------------------|
E|----------------3---------------|--------------------------------|


e|--------------------------------|--------------------------------|
B|--------------------------------|--------------------------------|
G|------------5\3-----------------|----------------------------3h5-|
D|--------------------------------|--------------------------------|
A|3---------------1---------------|--------------------------------|
E|--------------------------------|--------------------------------|
 |
e|--------------------------------|--------------------------------|
B|------------1-------------------|--------------------------------|
G|--------------3-----------------|------------------------------5-|
D|1---------------0---------------|----------------------------8---|
A|3---------------1---------------|--------------------------------|
E|4---------------3---------------|--------------------------------|



***********************************

| /   Slide up
| \   Slide down
| h   Hammer-on
| p   Pull-off
| x   Dead note

***********************************

            
            
Suggest correction
Creating personal tab
Creating personal tab
You can edit any tab online and save it as your Personal.

You can edit, replace or remove any tab part or add personal notes – all changes will be seen only by you.

Personal tabs can be accessed anytime from any device, even offline.
Learn more »
Give kudos to tab author, rate the tab!
1 2 3 4 5
comments
print report bad tab
guest
You may want to rate the tab now too:
select rating
Wanna post a correction for this tab? Suggest correction