Oops, an error
Loading. Please wait.

Springfield tab

version 2
version 2

Whole song

  • Includes guitar and keyboards parts.
  • I think this is the most accurate version of this song.
118 views 3 this week
1 commentread comment
1 2 3 4 5
2 more votes to show rating
add to favorites
×
Save as Personal and add changes to this tab that will be seen only by you. Learn more ›
×
You can save this tab as Personal to edit and correct it or add notes. All changes will be seen only by you. Learn more »
launch autoscroll
font size
0
reset
how to read this tab
guitar tuner
edit
Autoscroll
slow
fast
+/-
esc
set tempo
stop
About this tab version
I think this is the most accurate version of this song. Was this info helpful? Yes No
Springfield
The Optimist(2017)
Anathema
Cover by Darth_Revan_
         PorcupineTrains


Use clean and overdrive 

(Guitar 1) (Lead) (neck pickup)

  [Intro/Main riff]

Eb|-----------------------|
Bb|-----------------------|
Gb|-4h6--6/4----4h6--4h6--|
Db|-----------------------| (x2)
Ab|----0----------------4-|
Eb|---------4------0------|

(Guitar 1, 2) (change to bridge pickup)

Eb|-----------------------|--------2-4--------------|
Bb|-----------------------|-5-4/2-2-----------------|
Gb|-4h6--8/4---4h6--4h6---|-------------4h6--6/4----|
Db|-----------------------|-------------------------|
Ab|----0---------------4--|----------------0--------|
Eb|---------4-----0-------|---------------------4---|

Eb|------------|
Bb|------------|
Gb|-4h6--4h6---|
Db|------------|
Ab|---------4--|
Eb|----0-------|

  [Verse]

How did i get here?...

Eb|-----------------------|--------2-4--------------|
Bb|-----------------------|-5-4/2-2-----------------|
Gb|-4h6--8/4---4h6--4h6---|-------------4h6--6/4----|
Db|-----------------------|-------------------------|
Ab|----0---------------4--|----------------0--------|
Eb|---------4-----0-------|---------------------4---|

Eb|------------|
Bb|------------|
Gb|-4h6--4h6---|
Db|------------|
Ab|---------4--|
Eb|----0-------|

...I don't belong here...

Eb|-----------------------|--------2-4--------------|
Bb|-----------------------|-5-4/2-2-----------------|
Gb|-4h6--8/4---4h6--4h6---|-------------4h6--6/4----|
Db|-----------------------|-------------------------|
Ab|----0---------------4--|----------------0--------|
Eb|---------4-----0-------|---------------------4---|

Eb|------------|
Bb|------------|
Gb|-4h6--4h6---|
Db|------------|
Ab|---------4--|
Eb|----0-------|

...How did i get here...

eB|-----------------------|--------2-4--------------|
Bb|-----------------------|-5-4/2-2-----------------|
Gb|-4h6--8/4---4h6--4h6---|-------------4h6--6/4----|
Db|-----------------------|-------------------------|
Ab|----0---------------4--|----------------0--------|
Eb|---------4-----0-------|---------------------4---|

...i don't belong here...

Eb|-------------------2-4-|-------------------------|
Bb|------------5-4/2-2----|-------------------------|
Gb|-4h6--4h6--------------|-4h6--8/4--4h6--4h6-6(v)-|
Db|-----------------------|-------------------------|
Ab|---------4-------------|----0--------------------|
Eb|----0------------------|---------4----0----------|

 [Solo (W/ OVERDRIVE)]


(Guitar 1, 2) (guitar 2 plays this until the end)

Eb|-----------------------|--------------------------|
Bb|-----------------------|--------------------------|
Gb|-6(v)-4(v)-6(v)\9(v)---|8(v)/6(v)\11(v)-13(v)/6(v)|(x2)
Db|-----------------------|--------------------------|
Ab|-----------------------|--------------------------|
Eb|-----------------------|--------------------------|

(Guitar 1)

Eb|-----------------------|--------------------------|
Bb|\14(v)-11(v)-14(v)11(v)|-14(v)\17(v)(16)-14(v)\---|
Gb|-----------------------|--------------------------|(x2)
Db|-----------------------|--------------------------|
Ab|-----------------------|--------------------------|
Eb|-----------------------|--------------------------|

Eb|---------------|
Bb|\19(v)-21(v)---|
Gb|---------------|
Db|---------------|
Ab|---------------|
Eb|---------------|

Eb|-------------17(v)-16(v)|14(v)--------------------|
Bb|\19(v)-21(v)------------|-----17(v)-16(v)-15(v)---|
Gb|------------------------|-------------------------|
Db|------------------------|-------------------------|
Ab|------------------------|-------------------------|
Eb|------------------------|-------------------------|

Eb|------------------------|  (Repeat guitar 1 figure
Bb|-11(v)-14(v)-11(v)-14(v)|   until the end)
Gb|------------------------|
Db|------------------------|
Ab|------------------------|
Eb|------------------------|

  [Outro]

(Guitar 1)

eb|-17(V)-14---------------|------------------------|
Bb|------------------------|------------------------|
Gb|------------4H6-4H6-----|-4H6--6/4--4H6--4H6-----|
Db|------------------------|------------------------|
Ab|-------------------4----|----4----2---------4----|
Eb|---------------0--------|--------------0---------|

 [Intro/Main riff]

Eb|-----------------------|
Bb|-----------------------|
Gb|-4h6--6/4----4h6--4h6--|
Db|-----------------------| (x2)
Ab|----0----------------4-|
Eb|---------4------0------|

Eb|-------------|
Bb|-------------|
Gb|-4h6--4h6-6--|
Db|-------------|
Ab|----------4--|
Eb|----0--------|

(You can do a jam for Guitar 2 behind guitar I solo, like this, do it as you want)

...AAAHHH...

Eb|------------------------|-------------------------|
Bb|------------------------|-------------------------|
Gb|-11(v)-13(v)------------|---------9-8/6-6\11-13---|
Db|-------------6-4-4-4-4-3|-\6/4-6------------------|
Ab|-------------4-2-2-2-2-2|-\4/2-4--7-6/4-4\9--11---|
Eb|------------------------|-------------------------|

Eb|------------------------|
Bb|------------------------|
Gb|-14-13-11-9-8-6-4-------|
Db|------------------6-4-6-|
Ab|-12-11-9--7-6-4-2-4-2-4-|
Eb|------------------------|







************************************

| h  Hammer-on
| /  Slide up
| \  Slide down


************************************

            
            
Suggest correction
Creating personal tab
Creating personal tab
You can edit any tab online and save it as your Personal.

You can edit, replace or remove any tab part or add personal notes – all changes will be seen only by you.

Personal tabs can be accessed anytime from any device, even offline.
Learn more »
Give kudos to tab author, rate the tab!
1 2 3 4 5
comments
print report bad tab
1 comment total.
+1 reply
PorcupineTrains 10 Jul 23, 2017 06:43 PM

Good tab !!! but the intro should be like this:

Eb|-----------------------|
Bb|-----------------------|
Gb|-4h6--6/4----4h6--4h6--|
Db|-----------------------| (x2)
Ab|---------------------4-|
Eb|----5----4------0------|

guest
You may want to rate the tab now too:
select rating
Wanna post a correction for this tab? Suggest correction