Oops, an error
Loading. Please wait.

Temporary Peace tab

version 1
version 1

Whole song

Interactive

11,705 views 27 this week
2 commentsread comments
1 2 3 4 5
x 4
add to favorites
×
Save as Personal and add changes to this tab that will be seen only by you. Learn more ›
×
You can save this tab as Personal to edit and correct it or add notes. All changes will be seen only by you. Learn more »
launch autoscroll
font size
0
reset
how to read this tab
guitar tuner
edit
Autoscroll
slow
fast
+/-
esc
set tempo
stop
Author
Difficulty
================================================================================
                                A N A T H E M A

                                       -

                          T E M P O R A R Y   P E A C E
================================================================================


                               A FINE DAY TO EXIT
                            (c)  Koch Records (2001)
                             http://www.anathema.ws/


                    Standard Tuning with a Capo on the 3rd Fret
                            [Guitars 1, 4 and 5 only]
                                   E A D G B E

                                  Tempo = 84 BPM
                              Time Signature = 4/4



                          -----------------------------
                                 Transcribed by

                                 PADDY MCMULLAN
                           pmtabs (@t) gmail [dot] com

                                   Version 1.2
                                 15th August 2009
                     (Corrections Outlined at Bottom of Tab)
                             -----------------------

                             Tablature Symbols Used:


 p         -  Pull-Off
 h         -  Hammer-On
 (/)       -  Legato Slide (Blank space indicates length of slide)
 \         -  Slide Down to/Down From (Blank space indicates length of slide)
 /         -  Slide Up To/Up From (Blank space indicates length of slide)
 ( )       -  Ghost Note/Tied Note/Implied Note
 REST      -  Rest and sustain rest for duration of blank space
 |_3_|     -  Triplet Notes
 |___[1]   -  Ending 1/2/3 etc.
 (2b4r2)   -  Bend note to the indicated pitch, then release
 3~~       -  Vibrato
 ^         -  Down-stroke/Strum Down (Low to High Notes)
 v         -  Up-stroke/Strum Up (High to Low Notes)
 ///       -  Tremolo Picking (All Instances are 16th Triplets)
 9>        -  Volume Swells



                             -----------------------
                                  Song Notes:
                             -----------------------


 All notes are relative to the capo (for guitars 1, 4 and 5).  That is, an open
 string is in fact the third fret of the guitar.  The same applies to the chord
  diagrams below - the F position is in reality the G#/Ab position (4th fret).

   Guitars 2 and 3 provide the track with ambient lead guitar parts, and are
 improvised when the song is played live, usually so much so that they bear no
   resemblance to the original studio version.  With that in mind, these parts
   can be ignored or used merely as a reference if the tabs seem a little too
  long and confusing. These tracks either use volume swells or tremolo picking
                          for the entirety of the song.




                             -----------------------
                                  Chords Used:
                             -----------------------


                Fsus2   Fsus2add11+     Em         Am       Em/C

           E||----1----||----1----||----0----||----0----||----0----||
           B||----1----||----0----||----0----||----1----||----0----||
           G||----0----||----0----||----0----||----2----||----0----||
           D||----3----||----3----||----2----||----2----||----2----||
           A||----3----||----3----||----2----||----0----||----3----||
           E||----1----||----1----||----0----||---------||---------||


                 Am7        C7M        F7M         C        Em/A

            ||----0----||----0----||----0----||----0----||----0----||
            ||----1----||----1----||----1----||----1----||----0----||
            ||----0----||----0----||----2----||----0----||----0----||
            ||----2----||----2----||----3----||----2----||----2----||
            ||----0----||----2----||----3----||----3----||----0----||
            ||---------||----0----||----1----||---------||---------||


                           F7M/5-      Cadd11    Asus2

                       ||----0----||----0----||----0----||
                       ||----0----||----1----||----0----||
                       ||----2----||----0----||----2----||
                       ||----3----||----3----||----2----||
                       ||----0----||----3----||----0----||
                       ||---------||----1----||---------||



================================================================================
Riff 1.1: Guitar 1 with Clean Tone and Delay (Play x 24)
================================================================================


* Let notes ring wherever possible *


||-----------------------|-----------------------| |
||-----------------------|-----------0-----------| |
||-----0-----------------|-----------------------|*|
||-----------2-----------|-----3-----------------|*|
||--0-----0--------------|--0-----0--------------| |
||-----------------------|-----------------------| |



On the 16th time only, play the following instead:



|-----------------------|--------------------------|
|-----------------------|--------------------------|
|-----0-----------------|--------------------------|
|-----------2-----------|-----3-----0-----3-----2--|
|--0-----0--------------|--0-----0-----0-----0-----|
|-----------------------|--------------------------|



================================================================================
Riff 1.2: Guitar 4 [Acoustic] Enters on the 16th repeat of Riff 1.1 (Play x 8)
================================================================================

    Em/A                              F7M/5-

    ^    ^ v ^ v ^ v ^  ^ v ^  ^ v    ^    ^ v ^ v ^ v ^  ^ v ^  v ^
||--0----0-0-0-0-0-0-0--0-0-0--0-0-|--0----0-0-0-0-0-0-0--0-0-0--0-0-| |
||--0----0-0-0-0-0-0-0--0-0-0--0-0-|--0----0-0-0-0-0-0-0--0-0-0--0-0-| |
||--0----0-0-0-0-0-0-0--0-0-0--0-0-|--2----2-2-2-2-2-2-2--2-2-2--2-2-|*|
||--2----2-2-2-2-2-2-2--2-2-2--2-2-|--3----3-3-3-3-3-3-3--3-3-3--3-3-|*|
||--0----0-0-0-0-0-0-0--0-0-0--0-0-|--0----0-0-0-0-0-0-0--0-0-0--0-0-| |
||---------------------------------|---------------------------------| |



Every second repeat has slightly different strumming during the last bar:


   F7M/5-

   ^    ^ v ^ v ^ v ^  ^ v ^ v ^ v
|--0----0-0-0-0-0-0-0--0-0-0-0-0-0-|
|--0----0-0-0-0-0-0-0--0-0-0-0-0-0-|
|--2----2-2-2-2-2-2-2--2-2-2-2-2-2-|
|--3----3-3-3-3-3-3-3--3-3-3-3-3-3-|
|--0----0-0-0-0-0-0-0--0-0-0-0-0-0-|
|----------------------------------|



================================================================================
Riff 1.3: Guitar 2 with Clean Tone and Delay (Play x 1)
================================================================================


This riff begins 3 bars earlier than Riff 1.1, with the first 3 bars serving as
an intro to the song.

   -3                    -2                    -1
||----------------------|---------------------|-------------------|
||--R-  ----------------|---------------------|-------------------|
||--E-  ----------------|-----------12>-------|--(12)-------------|
||--S-  -10>-------9>---|--(9)----------------|-------------------|
||--T-  ----------------|---------------------|-------------------|
||----------------------|---------------------|-------------------|

 1                      2                      3
|----------------------|----------------------|----------------------|
|--13>-----------15>---|--(15)------------13>-|-(13)-----------------|
|----------------------|----------------------|---------12>----------|
|----------------------|----------------------|----------------------|
|----------------------|----------------------|----------------------|
|----------------------|----------------------|----------------------|

 4                      5                     6
|----------------------|---------------------|----------------------|
|----------------------|---------------------|----------------------|
|--(12)------------15>-|-(15)------12>-------|-(15)-------------15>-|
|----------------------|---------------------|----------------------|
|----------------------|---------------------|----------------------|
|----------------------|---------------------|----------------------|

 7                     8                      9
|---------------------|----------------15>---|--(15)-------------|
|---------------15>---|--13>-----------------|-------------------|
|--(15)---------------|----------------------|-------------------|
|---------------------|----------------------|-------------------|
|---------------------|----------------------|-------------------|
|---------------------|----------------------|-------------------|

 10                  11                    12
|-------------------|-----------15>-------|--(15)-----13>-------|
|--R--            --|--        -----------|---------------------|
|--S--            --|--        -----------|---------------------|
|--E--            --|--        -----------|---------------------|
|--T--            --|--        -----------|---------------------|
|-------------------|---------------------|---------------------|

 13                   14
|--------------------|-------------------|
|--13>---------------|--R--            --|
|--------------------|--E--            --|
|--------------------|--S--            --|
|--------------------|--T--            --|
|--------------------|-------------------|

 15                   16                     17              18
|--------------------|----------------------|---------------|---------------|
|--------------------|----------------------|---------------|--R--        --|
|--15///-------------|--15///------13///----|--12///--------|--E--        --|
|--------------------|----------------------|---------------|--S--        --|
|--------------------|----------------------|---------------|--T--        --|
|--------------------|----------------------|---------------|---------------|

 19                    20                   21                   22
|----------15///------|--15///------18///--|--18///----15///----|-----------|
|--      -------------|--------------------|--------------------|--R--    --|
|--      -------------|--------------------|--------------------|--E--    --|
|--      -------------|--------------------|--------------------|--S--    --|
|--      -------------|--------------------|--------------------|--T--    --|
|---------------------|--------------------|--------------------|-----------|

 23       24                   25          26
|--------|-------15///--------|--15///----|--15///-----18///-----16///--|
|--    --|--   ---------------|-----------|-----------------------------|
|--    --|--   ---------------|-----------|-----------------------------|
|--    --|--   ---------------|-----------|-----------------------------|
|--    --|--   ---------------|-----------|-----------------------------|
|--------|--------------------|-----------|-----------------------------|

 27                             28                    29
|--16///----15///--------------|---------------------|-------------------------|
|----------------------16////--|--15///----12///-----|--12///---13///---8///---|
|------------------------------|---------------------|-------------------------|
|------------------------------|---------------------|-------------------------|
|------------------------------|---------------------|-------------------------|
|------------------------------|---------------------|-------------------------|

 30                   31                  32                     33
|--------------------|-------------------|----------------------|------------|
|--8///----11////----|--11///----8///----|--6///--------9///----|--8///------|
|--------------------|-------------------|----------------------|------------|
|--------------------|-------------------|----------------------|------------|
|--------------------|-------------------|----------------------|------------|
|--------------------|-------------------|----------------------|------------|

 34            35                   36                            37
|-------------|--15 b 16///--------|--16 r 15///--15 b 16///-----|--16 r 15///-|
|--R--      --|--------------------|-----------------------------|-------------|
|--E--      --|--------------------|-----------------------------|-------------|
|--S--      --|--------------------|-----------------------------|-------------|
|--T--      --|--------------------|-----------------------------|-------------|
|-------------|--------------------|-----------------------------|-------------|

 38            39                      40
|-------------|--  -------------------|--------------------------------|
|--R--      --|--  -------------------|--------------------------------|
|--E--      --|--  --12 b 13///-------|--13 r 12///------12 b 13///----|
|--S--      --|--  -------------------|--------------------------------|
|--T--      --|--  -------------------|--------------------------------|
|-------------|--  -------------------|--------------------------------|

 41                   42         43              44
|--------------------|----------|---------------|-------------13///------|
|--------------------|--R     --|--  --13///----|--13///-----------------|
|--13 r 12///--------|--E     --|--  -----------|------------------------|
|--------------------|--S     --|--  -----------|------------------------|
|--------------------|--T     --|--  -----------|------------------------|
|--------------------|----------|---------------|------------------------|

 45                          46            47            48
|--15///-16///-15///--------|--18///------|--18///------|--16///--15///------||
|---------------------------|-------------|-------------|--------------------||
|---------------------------|-------------|-------------|--------------------||
|---------------------------|-------------|-------------|--------------------||
|---------------------------|-------------|-------------|--------------------||
|---------------------------|-------------|-------------|--------------------||



================================================================================
Riff 1.4: Guitar 3 with Clean Tone and Delay (Play x 1)
================================================================================


This riff begins 3 bars earlier than Riff 1.1, with the first 3 bars serving as
an intro to the song.


  -3                      -2     Very wide vibrato  -1
||-----------------------|-------------------------|-----------------------|
||-------13>-------------|-(13)----12~~------------|--(12) b 14>-----------|
||-----------------------|-------------------------|-----------------------|
||-----------------------|-------------------------|-----------------------|
||-----------------------|-------------------------|-----------------------|
||-----------------------|-------------------------|-----------------------|

 1                    2                   3
|--------------------|-------------------|----------------------|
|--------------------|-------------------|----------------------|
|--12>---------------|--(12)-------------|-(12)----12>----------|
|--------------------|-------------------|----------------------|
|--------------------|-------------------|----------------------|
|--------------------|-------------------|----------------------|

 4                      5                     6
|----------------------|---------------------|-----------------------|
|----------------------|-------16>-----------|-(16)----18>-------15>-|
|--(12)------------15>-|-(15)----------------|-----------------------|
|----------------------|---------------------|-----------------------|
|----------------------|---------------------|-----------------------|
|----------------------|---------------------|-----------------------|

 7                       8                    9
|-----------------------|--------------------|--------------------|
|-(15)----- \ 13>-------|--------------------|--------------------|
|-----------------------|--12>---------------|--(12)--------------|
|-----------------------|--------------------|--------------------|
|-----------------------|--------------------|--------------------|
|-----------------------|--------------------|--------------------|

 10                  11                   12
|-------------------|--------------------|-------------------|
|--R--            --|--------------------|-------------------|
|--E--            --|--15>---------------|--(15)-------------|
|--S--            --|--------------------|-------------------|
|--T--            --|--------------------|-------------------|
|-------------------|--------------------|-------------------|

 13                  14                  15 Pre-bend
|-------------------|-------------------|--16r15>---------------|
|--R--            --|--               --|-----------------------|
|--E--            --|--               --|-----------------------|
|--S--            --|--               --|-----------------------|
|--T--            --|--               --|-----------------------|
|-------------------|-------------------|-----------------------|


[REST FOR 4 BARS]

 20                    21                   22
|---------------------|--------------------|-------------------|
|--R--   -------------|--------------------|--R--            --|
|--E--   -------------|--12>---------------|--E--            --|
|--S--   --15>--------|--------------------|--S--            --|
|--T--   -------------|--------------------|--T--            --|
|---------------------|--------------------|-------------------|

 23                     24
|----------------------|-------------13-///-----------------|
|--           --16  \  |--15--------------------------------|
|--           ---------|------------------------------------|
|--           ---------|------------------------------------|
|--           ---------|------------------------------------|
|----------------------|------------------------------------|

 25              26                        27
|--15///--------|--15///--18///----16///--|--16///-15///-----------|
|---------------|-------------------------|-----------------15///--|
|---------------|-------------------------|------------------------|
|---------------|-------------------------|------------------------|
|---------------|-------------------------|------------------------|
|---------------|-------------------------|------------------------|

 28                            29
|-----------------------------|------------------------|
|--15///------16///---12///---|--13///--------12///----|
|-----------------------------|------------------------|
|-----------------------------|------------------------|
|-----------------------------|------------------------|
|-----------------------------|------------------------|

 30                               31
|--------------------------------|-----------------------|
|--12///--13///---12///--9///----|--8///---------6///----|
|--------------------------------|-----------------------|
|--------------------------------|-----------------------|
|--------------------------------|-----------------------|
|--------------------------------|-----------------------|

 32                       33                     34
|------------------------|----------------------|--------------|
|--6///---4///----3///---|--3///--1///----------|--R--       --|
|------------------------|----------------------|--E--       --|
|------------------------|----------------------|--S--       --|
|------------------------|----------------------|--T--       --|
|------------------------|----------------------|--------------|

 35                     36                           37
|---------------------|-----------------------------|------------------------|
|--R--  --13///-------|--13///---------13b14///-----|--14///------14r13///---|
|--E--  --------------|-----------------------------|------------------------|
|--S--  --------------|-----------------------------|------------------------|
|--T--  --------------|-----------------------------|------------------------|
|---------------------|-----------------------------|------------------------|

 38                  39                   40
|-------------------|--------------------|--------------------------|
|--R--            --|--    --------------|--------------------------|
|--E--            --|--    -12b13///-----|--13r12///----12b13///----|
|--S--            --|--    --------------|--------------------------|
|--T--            --|--    --------------|--------------------------|
|-------------------|--------------------|--------------------------|

 41
|-----------------------|
|-----------------------|
|--13r12///-------------|
|-----------------------|
|-----------------------|
|-----------------------|


REST FOR 6 BARS

 48
|----------------||
|----------------||
|--3///----------||
|----------------||
|----------------||
|----------------||



================================================================================
Section 2.1: Guitar 1 (Play x 1)
================================================================================


The basic chord shapes which are the basis for these arpeggios are as follows:


* Let notes ring wherever possible *


1.  Fsus2 - Am   - Em - Fsus2
2.  Am    - Em/C - Em - Fsus2
3.  C     - Am   - Em - Fsus2add11+
4.  Am    - Em/C - Em - Fsus2
5.  C     - Am7  - Em - Fsus2
6.  Am    - Em/C - C7M



Note that each sequence ends with Em and Fsus2 (or Fsus2add11+ in one instance)



Here are the arpeggios tabbed in full (double bar lines indicate the end of each
sequence):


    Fsus2                      Am                      Em
||--------------1-----------|-----------0-----------|-----------0-----------|
||--------------1-----------|-----------1-----------|-----------0-----------|
||-----------0--------------|--------2--------------|--------0--------------|
||--------------------------|-----2-----------------|-----------------------|
||--------3-----------------|--0--------------------|-----2-----------------|
||--1-----------------------|-----------------------|--0--------------------|


   Fsus2                     Am                      Em/C
|------------1-----------||-----------0-----------|-------------0----------|
|------------1-----------||-----------1-----------|-------------0----------|
|------0--0--------------||--------2--------------|----------0-------------|
|------3-----------------||-----2-----------------|------2-----------------|
|------------------------||--0--------------------|--3---------------------|
|--1---------------------||-----------------------|------------------------|


   Em                      Fsus2                     C
|-----------0-----------|------------1-----------||-----------0-----------|
|-----------0-----------|------------1-----------||-----------1-----------|
|--------0--------------|---------0--------------||--------0--------------|
|-----------------------|------------------------||-----2-----------------|
|-----2-----------------|------3-----------------||--3--------------------|
|--0--------------------|--1---------------------||-----------------------|


   Am                      Em
|-----------0-----------|-----------0-----------|
|-----------1-----------|-----------0-----------|
|--------2--------------|--------0--------------|
|-----2-----------------|-----2-----------------|
|--0--------------------|-----------------------|
|-----------------------|--0--------------------|


   Fsus2add11+               Am
|------------1-----------||-----------0-----------|
|------------0-----------||-----------1-----------|
|---------0--------------||--------2--------------|
|------------------------||-----2-----------------|
|------3-----------------||--0--------------------|
|--1---------------------||-----------------------|


   Em/C                     Em                      Fsus2
|------------0-----------|-----------0-----------|------------1-----------|
|------------0-----------|-----------0-----------|------------1-----------|
|---------0--------------|-----------------------|---------0--------------|
|------2-----------------|--------2--------------|------------------------|
|--3---------------------|-----2-----------------|------3-----------------|
|------------------------|--0--------------------|--1---------------------|


    C                       Am7                     Em
||-----------0-----------|-----------0-----------|-----------0-----------|
||-----------1-----------|-----------1-----------|-----------0-----------|
||--------0--------------|--------0--------------|--------0--------------|
||-----2-----------------|-----2-----------------|-----2-----------------|
||--3--------------------|--0--------------------|-----------------------|
||-----------------------|-----------------------|--0--------------------|


   Fsus2                     Am7                      Em/C
|------------1-----------||------------0-----------|-----------0-----------|
|------------1-----------||------------1-----------|-----------0-----------|
|---------0--------------||---------0--------------|--------0--------------|
|------------------------||------2-----------------|-----2-----------------|
|------3-----------------||--0---------------------|--3--------------------|
|--1---------------------||------------------------|-----------------------|


   C7M
|------------0-----------||
|------------1-----------||
|---------0--------------||
|------2-----------------||
|------------------------||
|--0---------------------||



To aid you in navigating of this section here are the lyrics as they relate to
each 4-chord sequence:


    Fsus2                      Am
1.  Beyond this beautiful horizon lies a dream for you and I

    Em                                Fsus2
    This tranquil scene is still unbroken by the rumours in the sky

    Am                        Em/C
2.  There's a storm closing in, voices crying on the wind

    Em                       Fsus2
    The serenade is growing cold, it breaks my soul and tries to sing

    C                           Am
3.  There's so many, many thoughts, when I try to go to sleep

    Em                      Fsus2add11+
    But with you I start to feel a sort of temporary peace


etc.



================================================================================
Section 2.2: Acoustic Guitar (Play x 1)
================================================================================


The basic strum pattern is illustrated by the following two bars and is
applicable to the entire section:

    Fsus2                        Am

    ^   v ^ v ^   v ^   v ^ v    ^   v ^ v ^   v ^   v ^ v
||--0---0-----0---0-----0-0-0-|--0---0-0-0-0---0-0---0-0-0-|
||--1---1---1-1---1-1---1-1-1-|--1---1-1-1-1---1-1---1-1-1-|
||--0---0-0-0-0---0-0---0-0-0-|--2---2-2-2-2---2-2---2-2-2-|
||--3---3-3-3-3---3-3---3-3-3-|--2---2-2-2-2---2-2---2-2-2-|
||--3-----3-3-3---3-3---3-3-3-|--0---0-0-0-0---0-0---0-0-0-|
||--1-----1---1---------1-1-1-|----------------------------|



Here are the chords for this section; they mirror the chords played by Guitar 1:


1.  Fsus2 - Am   - Em - Fsus2
2.  Am    - Em/C - Em - Fsus2
3.  C     - Am   - Em - Fsus2add11+
4.  Am    - Em/C - Em - Fsus2
5.  C     - Am7  - Em - Fsus2
6.  Am    - Em/C - C7M



================================================================================
Section 2.3: Guitar 2 (Play x 1)
================================================================================


  1               2               3               4
||--18///--------|--18///--------|--18///--------|--18///--13///----|
||---------------|---------------|---------------|------------------|
||---------------|---------------|---------------|------------------|
||---------------|---------------|---------------|------------------|
||---------------|---------------|---------------|------------------|
||---------------|---------------|---------------|------------------|

 5                                6
|--13///-------------------------|---------------------------|
|----------16///----15///--------|--15///-----13///---11///--|
|--------------------------------|---------------------------|
|--------------------------------|---------------------------|
|--------------------------------|---------------------------|
|--------------------------------|---------------------------|

 7                          8                      9            10
|--------------------------|--15///---------------|------------|---------------|
|--8///----------6///-8///-|---------------16///--|------------|--15///--18///-|
|--------------------------|----------------------|--15///-----|---------------|
|--------------------------|----------------------|------------|---------------|
|--------------------------|----------------------|------------|---------------|
|--------------------------|----------------------|------------|---------------|

 11                      12          13
|--15///----------------|-----------|--15///-------13///--|
|---------------16///---|-----------|---------------------|
|-----------------------|--15///----|---------------------|
|-----------------------|-----------|---------------------|
|-----------------------|-----------|---------------------|
|-----------------------|-----------|---------------------|

 14                                 15
|--13///---10///---8///---6///---3-|--4///--3///--8///--6///--8///--|
|----------------------------------|--------------------------------|
|----------------------------------|--------------------------------|
|----------------------------------|--------------------------------|
|----------------------------------|--------------------------------|
|----------------------------------|--------------------------------|

 16                                 17
|--11///-----------11///---13///---|--15///--18///--16///-15///-13///-|
|----------11///-------------------|----------------------------------|
|----------------------------------|----------------------------------|
|----------------------------------|----------------------------------|
|----------------------------------|----------------------------------|
|----------------------------------|----------------------------------|

 18                                     19
|-13///\11-11/18///--16///-15///-13///-|-13///\11-11/18///--16///-15///-13///-|
|--------------------------------------|--------------------------------------|
|--------------------------------------|--------------------------------------|
|--------------------------------------|--------------------------------------|
|--------------------------------------|--------------------------------------|
|--------------------------------------|--------------------------------------|

 20                            21
|--10///--11///---------------|--13///-10///-11///----18///----|
|-------------------11///-----|--------------------------------|
|-----------------------------|--------------------------------|
|-----------------------------|--------------------------------|
|-----------------------------|--------------------------------|
|-----------------------------|--------------------------------|

 22                          23
|----------------18///------|--18///---16///---15///-----------||
|--15///--16///-------------|--------------------------16///---||
|---------------------------|----------------------------------||
|---------------------------|----------------------------------||
|---------------------------|----------------------------------||
|---------------------------|----------------------------------||



================================================================================
Section 2.4: Guitar 3 (Play x 1)
================================================================================

  1 - 15
||------------| |
||------------| |
||--3///------|*|
||------------|*| x 15
||------------| |
||------------| |

 16        17                        18                   19
|---------|--13///---15///---18///--|--18///----22///----|--22///-18///---15//-|
|--R--  --|-------------------------|--------------------|---------------------|
|--E--  --|-------------------------|--------------------|---------------------|
|--S--  --|-------------------------|--------------------|---------------------|
|--T--  --|-------------------------|--------------------|---------------------|
|---------|-------------------------|--------------------|---------------------|

 20                               21         22         23
|--15///--13///--11///-10///-----|--6///----|--6///----|--15///----||
|--------------------------------|----------|----------|-----------||
|--------------------------------|----------|----------|-----------||
|--------------------------------|----------|----------|-----------||
|--------------------------------|----------|----------|-----------||
|--------------------------------|----------|----------|-----------||



================================================================================
Outro 1.1: Guitar 1 (Play x 1)
================================================================================


* Let notes ring wherever possible *


Hold the F7M chord in bar 1 until bar 18


  1 FM7                 2
||--0------------------|--0---------------------||
||--1----------------1-|--0----------------0h 1-||
||--2------------------|---------2--------------||
||--3------------------|------------------------||
||--3------------------|------------------------||
||--1------------------|------------------------||

  3 - 16
||---------------------|------------------------| |
||-------------------1-|--0----------------0h 1-| |
||--2------------------|---------2--------------|*|
||---------------------|------------------------|*| x 7
||---------------------|------------------------| |
||---------------------|------------------------| |

 17                  18
|-------------------|-----------------------|
|-------------------|-----------------------|
|--2----------------|-----------------------|
|-------------------|--3--3-----------3--3--|
|-------------------|-----------------------|
|-------------------|-----------------------|

 19                            20
|-----------------------------|----------------------------|
|-----------------------------|----------------------------|
|-----------------------------|----------------------------|
|--2--2--2-2--2-2--2-2--2-2-2-|--3--3--3-3--3-3--3--3-3--3-|
|-----------------------------|----------------------------|
|-----------------------------|----------------------------|

 21                             22
|------------------------------|--------------------------------|
|------------------------------|--------------------------------|
|------------------------------|--------------------------------|
|------------------------------|--------------------------------|
|------------------------------|---------0----0-----------------|
|--1--1-1-1-1--1--1-1-1-1-1--1-|--1--1-1---1----1-1-1-1-1-1-1-1-|

 23                              24
|-------------------------------|------------------------------|
|-------------------------------|------------------------------|
|-------------------------------|------------------------------|
|-------------------------------|------------------------------|
|----------------3-----3--------|---------0--------------------|
|--1--1-1-1-1--1---1-1---1-1--1-|--1--1-1---1--1--1-1-1-1-0--0-|

 25                             26
|------------------------------|------------------------------|
|------------------------------|------------------------------|
|------------------------------|------------------------------|
|------------------------------|------------------------------|
|--0--0-0-0-0--0--0-0-0-0-0--0-|--0--0-0-0-0--0--0-0-0-0-0--0-|
|------------------------------|------------------------------|

 27
|---------------------------------------|
|---------------------------------------|
|---------------------------------------|
|---------------------------------------|
|--0--0-0-0-0--0--0-0-0-0-0-0-0-0-0-0-0-|
|---------------------------------------|

 28
|------------------------------------------------|
|------------------------------------------------|
|------------------------------------------------|
|------------------------------------------------|
|--1-1-1-1-1-1-1-1-1-1-1-1-1-1-1-1-0--0-0-0-0--0-|
|------------------------------------------------|

 29
|---------------------------------------|
|---------------------------------------|
|---------------------------------------|
|---------------------------------------|
|--0--0-0-0-0--0--0-0-0-0-0-0-0-0-0-0-0-|
|---------------------------------------|

Gradually fade out from here on
 30
|------------------------------------------------------------------|
|------------------------------------------------------------------|
|------------------------------------------------------------------|
|------------------------------------------------------------------|
|--0-0-0-0-0-0-0-0-0-0-0-0-0-0-0-0-0-0-0-0-0-0-0-0-0-0-0-0-0-0-0-0-|
|------------------------------------------------------------------|

 31
|------------------------------------------------------------------||
|------------------------------------------------------------------||
|------------------------------------------------------------------||
|------------------------------------------------------------------||
|--0-0-0-0-0-0-0-0-0-0-0-0-0-0-0-0-0-0-0-0-0-0-0-0-0-0-0-0-0-0-0-0-||
|------------------------------------------------------------------||



================================================================================
Outro 1.2: Guitar 2 (Play x 1)
================================================================================

  1           2                 3           4           5           6
||-----------|-----------------|-----------|-----------|-----------|-----------|
||--16///----|--15///---13-----|--13///----|--11///----|-----------|-----------|
||-----------|-----------------|-----------|-----------|--12///----|--10///----|
||-----------|-----------------|-----------|-----------|-----------|-----------|
||-----------|-----------------|-----------|-----------|-----------|-----------|
||-----------|-----------------|-----------|-----------|-----------|-----------|

 7          8          9         10       11       12       13
|----------|----------|---------|--------|--------|--------|---------|
|----------|----------|---------|--8>----|--8>----|--8>----|--13>----|
|--8///----|--7///----|--5------|--------|--------|--------|---------|
|----------|----------|---------|--------|--------|--------|---------|
|----------|----------|---------|--------|--------|--------|---------|
|----------|----------|---------|--------|--------|--------|---------|

 14         15         16          17          18          19
|----------|----------|--15///----|-----------|--15///----|-----------|
|--(13)----|--(13)----|-----------|--13///----|-----------|--13///----|
|----------|----------|-----------|-----------|-----------|-----------|
|----------|----------|-----------|-----------|-----------|-----------|
|----------|----------|-----------|-----------|-----------|-----------|
|----------|----------|-----------|-----------|-----------|-----------|

 20                           21                 22         23
|----------------------------|------------------|----------|---------------|
|--15 b 16///---16r 15///----|--13--11----------|----------|---------------|
|----------------------------|----------13--12--|--(12)----|--(12)---15-13-|
|----------------------------|------------------|----------|---------------|
|----------------------------|------------------|----------|---------------|
|----------------------------|------------------|----------|---------------|

 24       25         26                         27
|--------|----------|--------------------------|---------15-13-15-13-------|
|--------|----------|--16///----15///--11///---|--R--  --------------16----|
|--12----|--(12)----|--------------------------|--E--  --------------------|
|--------|----------|--------------------------|--S--  --------------------|
|--------|----------|--------------------------|--T--  --------------------|
|--------|----------|--------------------------|---------------------------|

 28                        29                30               31        32
|-------------------------|----------15>----|--(15)----------|---------|-------|
|--(16)-------15--18--18--|--(18)-----------|---------13>----|--R--  --|--8>---|
|--------17>--------------|-----------------|----------------|--E--  --|-------|
|-------------------------|-----------------|----------------|--S--  --|-------|
|-------------------------|-----------------|----------------|--T--  --|-------|
|-------------------------|-----------------|----------------|---------|-------|

 33
|---------||
|--(8)----||
|---------||
|---------||
|---------||
|---------||



================================================================================
Outro 1.3: Guitar 3 (Play x 1)
================================================================================


REST FOR 5 BARS


  6                       7
||--15///----18///----22-|--22///--18///--15///--13--///-11///-10///-|
||-----------------------|-------------------------------------------|
||-----------------------|-------------------------------------------|
||-----------------------|-------------------------------------------|
||-----------------------|-------------------------------------------|
||-----------------------|-------------------------------------------|

 8                          9       10             11       12
|--10///-8///-6///-4///----|--3----|--6>----4>----|--3>----|--1>----|
|--------------------------|-------|--------------|--------|--------|
|--------------------------|-------|--------------|--------|--------|
|--------------------------|-------|--------------|--------|--------|
|--------------------------|-------|--------------|--------|--------|
|--------------------------|-------|--------------|--------|--------|

 13 - 15
|-3////------| |
|------------| |
|------------|*|
|------------|*| x 3
|------------| |
|------------| |


This guitar rests for the remainder of the song



================================================================================
Outro 1.4: Guitar 4 (Repeats Outlined Below)
================================================================================


    FM7
    ^   v ^  ^   v ^  ^  ^ v  
||--0---0----0---0----0--0-0-| |
||--1---1----1---1-1--1--1-1-| |
||--2---2-2--2---2-2--2--2-2-|*|
||--3---3-3--3---3-3--3--3-3-|*| x 8
||--3-----3--3---3-3--3--3-3-| |
||--1-----1--1--------1--1-1-| |

   Am
   ^
|--0----------------||
|--1----------------||
|--2----------------||
|--2----------------||
|--0----------------||
|-------------------||



Allow the last chord to ring out



================================================================================
Outro Fill 1: Guitar 5 with Clean Tone and Delay (Play x 1)
================================================================================


* Let notes ring wherever possible *


  1                              2
||------------------------------|-----------------------------|
||--R--    ----1p 0---1p 0------|------0------1p 0---1p 0-----|
||--E--    --0------0------0--2-|-(2)--------------0------0---|
||--S--    ---------------------|----3------------------------|
||--T--    ---------------------|-----------------------------|
||------------------------------|-----------------------------|

 3                         4                        5
|-------------------------|------------------------|---------------------|
|-------------1p 0--------|--0---------1p 0--------|---------1--0--------|
|-(0)-------0------0------|-----------------0------|--(0)----------------|
|-------------------------|------------------------|---------------------|
|-------------------------|------------------------|---------------------|
|-------------------------|------------------------|---------------------|

 6                       7
|-----------------------|---------------------------|
|-----------------------|---------------------------|
|--2-----------0--------|-------------------------0-|
|-----------------3--2--|-(2)----------2--(2)-2-2-3-|
|-----------------------|---------------------------|
|-----------------------|---------------------------|

 8                                      9
|--------------------------------------|----------------------------------|
|--------------------------------------|----------------------------------|
|--0-0/ 2---2\ 0---2-0---0-------------|------------------------0---0-2---|
|--3-3/ 5---5\ 2---3-2---2-3-(3)---3-2-|------2-----2-----2-----3---3-5---|
|---------0------0-----0---------0-----|--0-0---0-0---0-0---0-0---0-----0-|
|--------------------------------------|----------------------------------|

 10                               11
|--------------------------------|------------------------------------|
|--------------------------------|------------------------------------|
|--2-0---0------------------0--2-|----0/ 2---2\ 0---------------------|
|--5-3---3-2---2----2-------2/ 3-|----3/ 5---5\ 3---3-2---3-2-----2---|
|------0-----0----0-----0-0------|--0------0------0-----0-----0-0---0-|
|--------------------------------|------------------------------------|

 12
|-----------------------------||
|-----------------------------||
|-----------------------------||
|----2----2----2----2----2----||
|--0----0----0----0----0----0-||
|-----------------------------||



This fill enters during the last 12 bars of the song



================================================================================
Outro Fill 2: Guitar 4 (Play x 5)
================================================================================


* Let notes ring wherever possible *


||----------------------------------|----------------------------------| |
||--0-------0-------0-------0-------|--0-------0-------0-------0-------| |
||------0-------0-------0-------0---|------0-------0-------0-------0---|*|
||--------3-------3-------3-------2-|--------2-------2-------2-------3-|*|
||----0-------0-------0-------0-----|----0-------0-------0-------0-----| |
||----------------------------------|----------------------------------| |



This fill enters during the last 10 bars of the song



On the final repeat, play the first bar once more, gradually decreasing the
tempo to 30 BPM and changing the last note of the bar from 2 to 3, allowing this
note to ring out



================================================================================
End
================================================================================


Tab summary:        Riff 1:
                           1.1 x 24
                           1.2 x 8
                           1.3 x 1
                           1.4 x 1
                    Section 2:
                              2.1 x 1
                              2.2 x 1
                              2.3 x 1
                              2.4 x 1
                    Outro x 1
                    Outro Fill 1 x 1
                    Outro Fill 2 x 2

                    END


-----------------------
Corrections (08/08/09):
-----------------------

* Added missing part (Outro 1.4)

-----------------------
Corrections (15/08/09):
-----------------------

* Corrected Outro 1.4

            
            
Suggest correction
Creating personal tab
Creating personal tab
You can edit any tab online and save it as your Personal.

You can edit, replace or remove any tab part or add personal notes – all changes will be seen only by you.

Personal tabs can be accessed anytime from any device, even offline.
Learn more »
comments
print report bad tab
2 comments total.
0 reply
paddyirishman 7,740 Aug 07, 2009 05:28 PM

Corrected 8th August 2009 [ Added a very small, previously missing outro part ]

0 reply
paddyirishman 7,740 Aug 15, 2009 10:58 AM

Minor correction submitted [ 15th August 2009 ]

guest
You may want to rate the tab now too:
select rating
Wanna post a correction for this tab? Suggest correction