Oops, an error
Loading. Please wait.

The Beginning And The End tab

103 views 24 this week
no commentswrite comment
1 2 3 4 5
3 more votes to show rating
add to favorites
×
Save as Personal and add changes to this tab that will be seen only by you. Learn more ›
×
You can save this tab as Personal to edit and correct it or add notes. All changes will be seen only by you. Learn more »
launch autoscroll
font size
0
reset
how to read this tab
guitar tuner
edit
Autoscroll
slow
fast
+/-
esc
set tempo
stop
About this tab version
This is the first tab of this song, i tried to simplify some guitars( there are 4) like it was to be live played. Was this info helpful? Yes No
Weather Systeems (2012)

[Intro/main riff]
Capo 3rd fret
(Guitar 1 w/ neck pickup and light ovedrive)
e|------------------------------|--------------------------|
B|----------------------------0-|-3-0----------------------|
G|-----0-----------0---------0--|-------2-0----------------|
D|---2--2--------2--2-------2---|----------2--0---2-0-2----|
A|--2-----------2----------2----|---------------2-2----2---|
E|-0-----------0----------0-----|-----------------0--------|

Inside this cold heart is a dream
that's locked in a box that I keep.
Buried a hundred miles deep in my soul, 
in a place that's surrounded by aeons of silence.

(Guitar 1, 2 w/ neck pickup and light overdrive)
e|------------------------------|--------------------------|
B|------------------------------|-----------------------0--|
G|-----0-----------0------------|0------------0--------0---|
D|---2--2--------2--2---------2-|-2---------2--2------2----|
A|--2-----------2------------2--|----------2---------2-----|
E|-0-----------0------------0---|---------0---------0------|

e|------------------------------|--------------------------|
B|-3-0----------0-3-0-------0-3-|-0------------------------|
G|-------------0-----------0----|-------------0-2----------|
D|------------2-----------2-----|-----------2----2---------|
A|-----------2-----------2------|----------2---------------|
E|----------0-----------0-------|---------0----------------|

e|------------------------------|--------------------------|
B|----------------------------0-|-3-0----------------------|
G|-----0-----------0---------0--|-------2-0----------------|
D|---2--2--------2--2-------2---|----------2--0---2-0-2----|
A|--2-----------2----------2----|---------------2-2----2---|
E|-0-----------0----------0-----|-----------------0--------|

Somewhere inside is the key, 
to everything I want to feel

(Guitars 1, 2 change to bridge pickup w/light overdrive)
e|--------------------------|
B|--------------------------|
G|-----0-----------0--------|(x3)
D|---2--2---2-2\4---4--2----|
A|--2-------3-3\5------3----|
E|-0--------------0---------|

But the dark summer dawns of my memory, 
are lost in a place that can never be.

e|---------------------------|
B|-----0-3-0-----------------|
G|----0-------------0--------|(x4)
D|---2-------2-2\4---4--2----|
A|--2--------3-3\5------3----|
E|-0---------------0---------|

Can someone, 
please show me the way?
Can someone, 
please help me?

Because I cannot see,
the silence is raging!

e|--------0------------------|
B|-----0-3-------------------|
G|----0------------0---------|(x4)
D|---2------2-2\4---4--2-----|
A|--2-------3-3\5------3-----|
E|-0--------------0----------|

[Chorus]
Silence is raging! ooohhh!!!...

(Guitar 2 w/ light ovedrive and bridge pickup)
e|--------------------------|
B|--------------------------|
G|-----0-----------0--------|(x8)
D|---2--2---2-2\4---4--2----|
A|--2-------3-3\5------3----|
E|-0--------------0---------|

(Guitar 1, w/ ovedrive/delay and bridge pickup)
e|-----------------------\7-10--|-7~--------------------------|
B|--------------~---------------|-----10-8---------8-10-------|
G|-\9-13-9~\----9-13-9~---------|---------9~-7---9------9~----|(x2)
D|------------------------------|--------------9--------------|
A|------------------------------|-----------------------------|
E|------------------------------|-----------------------------|

Silence, silence,
fade into silence.
Silence, silence,
fade into silence.

Memory, memory,
inside is the key to memory.
Memory, memory,
inside is the key to memory.

(Guitar 1, w/ ovedrive/delay and bridge pickup)
e|-----------------------\7-10--|-7~--------------------------|
B|--------------~---------------|-----10-8---------8-10-------|
G|-\9-13-9~\----9-13-9~---------|---------9~-7---9------9~----|
D|------------------------------|--------------9--------------|
A|------------------------------|-----------------------------|
E|------------------------------|-----------------------------|

(Guitar 2, w/ overdrive and bridge pickup)
e|----------------------------------|
B|----------------------------------|
G|----------------------------------|(x4)
D|-2-2-x-x-2-2-x-x-4-4-x-x-2-2-x-x--|
A|-2-2-x-x-3-3-x-x-5-5-x-x-3-3-x-x--|
E|-0-0-x-x--------------------------|

[Solo]
(Guitar 1 w/ ovedrive/delay and bridge pickup)   
       +        +    +                              +            +
e|--------------------------------|---------------------------------|
B|-17br17-17fb~17br17~------15p12h|15p12--------------------12-15br-|
G|--------------------------------|-----14~11-14p12------\14--------|
D|--------------------------------|----------------14~/-------------|
A|--------------------------------|---------------------------------|
E|--------------------------------|---------------------------------|

           +          +                                +
e|--------------------------------|---------------------------------|
B|-12--12-15br12--12-15fb~-15br15-|-15-13-12---12-------------------|
G|---14---------14----------------|---------14---14-12--------------|
D|--------------------------------|-------------------14~---12-14p--|
A|--------------------------------|---------------------------------|
E|--------------------------------|---------------------------------|

           +                           +         +        
e|--------------------------------|---------------------14br~12-----|
B|--------------------------------|------------15hb~h12-------------|
G|----------------------------12--|-14-14fb~------------------------|
D|-13~/7--7-~--------------\14----|---------------------------------|
A|--------------------------------|---------------------------------|
E|--------------------------------|---------------------------------|

         +       +   
e|-16br~12------------------------|---------------------|
B|---------18br~15~15fb~--15-13-12|---12----------------|
G|--------------------------------|-14--14-12-----------|
D|--------------------------------|----------14---------|
A|--------------------------------|---------------------|
E|--------------------------------|---------------------|

(Rhythm for Guitar 2, behind solo, light ovedrive and bridge pickup)
e|--------------------------|
B|--------------------------|
G|-----0-----------0--------|(x4)
D|---2--2---2-2\4---4--2----|
A|--2-------3-3\5------3----|
E|-0--------------0---------|

e|---------------------------|
B|-----0-3-0-----------------|
G|----0-------------0--------|(x2)
D|---2-------2-2\4---4--2----|
A|--2--------3-3\5------3----|
E|-0---------------0---------|

e|--------0------------------|
B|-----0-3-------------------|
G|----0------------0---------|(x2)
D|---2------2-2\4---4--2-----|
A|--2-------3-3\5------3-----|
E|-0--------------0----------|

[Outro]
(Guitar 1, w/ ovedrive/delay and bridge pickup)
e|-----------------------\7-10--|-7~--------------------------|
B|--------------~---------------|-----10-8---------8-10-------|
G|-\9-13-9~\----9-13-9~---------|---------9~-7---9------9~----|(x2)
D|------------------------------|--------------9--------------|
A|------------------------------|-----------------------------|
E|------------------------------|-----------------------------|

(Guitar 2, w light ovedrive and neck pickup)
e|-----------------------|------------------------|--------0--------------|
B|-----------------------|-----0-3-0--------------|-----0-3---------------|
G|-----0-----------0-----|----0-------------0-----|----0------------0-----|
D|---2--2---2-2\4---4--2-|---2-------2-2\4---4--2-|---2------2-2\4---4--2-|
A|--2-------3-3\5------3-|--2--------3-3\5------3-|--2-------3-3\5------3-|
E|-0--------------0------|-0---------------0------|-0--------------0------|

At first sight, it may looks like a hard song, but it is not, just have patience
and keep practicing, the harmonic parts(+) could be easier if you have a sustainer
if not, just try to made feedback and pinch harmonics, have fun :D

***************************************************************************

| +      Harmonic
| ~      Vibrato
| \/     Slide Up,Down
| br     bend release
| hb     half bend
| fb     full bend
| p      Pull off
| h      hammer on

***************************************************************************

            
            
Suggest correction
Creating personal tab
Creating personal tab
You can edit any tab online and save it as your Personal.

You can edit, replace or remove any tab part or add personal notes – all changes will be seen only by you.

Personal tabs can be accessed anytime from any device, even offline.
Learn more »
Give kudos to tab author, rate the tab!
1 2 3 4 5
comments
print report bad tab
guest
You may want to rate the tab now too:
select rating
Wanna post a correction for this tab? Suggest correction