Oops, an error
Loading. Please wait.

A Whisper A Clamor Tab

version 2
version 2

Whole song

13,281 views 1 this week
6 commentsread comments
1 2 3 4 5
x 8
add to favorites
launch autoscroll
font size
0
reset
how to read this tab
guitar tuner
Autoscroll
slow
fast
+/-
esc
set tempo
stop
Help us to improve Ultimate-Guitar.com Take our survey!
×
Author
Difficulty
Tuning
novice
C G C F A D
      h - hammer on 
      p - pull off 
      b - bend string up
      r - release bend
      / - slide up
      \ - slide down
      v - vibrato (sometimes written as ~)
      t - right hand tap
      x - play 'note' with heavy damping

Song: A Whisper And A Clamor
Band: Anberlin

Intro:
|----------------------------------------------------------------|x2
|----------------------------------------------------------------|
|-----------------—--10--10--10--10--10--10—-10b--10--10---------|
|----------------------------------------------------------------|
|----------------------------------------------------------------|
|--0--0--0--0--0—-0----------------------------------------------|

Chorus:
|--5-5-5--5--5-5-------------------------------|--------------|
|--6-6-6--6--6-6---10-10--10--10-10------------|--5--6--5--3--|
|--7-7-7--7--7-7--—10-10--10--10-10---555555---|--------------|
|--7-7-7--7--7-7---10-10--10--10-10---555555---|--------------|
|--5-5-5--5--5-5---8--8---8---8--8----333333---|--------------|
|----------------------------------------------|--------------|
      |--------------    2x    ---------------|

Verse:
|--------------------------------------------------------|x2
|--------------------------------------------------------|
|-----------10--10—-10--9--9--9--------------0--0--------|
|--------------------------------10--10--10--------------|
|--------------------------------------------------8--8--|
|--0--0--0-----------------------------------------------|

|--------------------------------------------------------|x2
|--------------------------------------------------------|
|-----------10--10—-10--9--9--9--------------0--0--------|
|--------------------------------10--10--10--------------|
|--------------------------------------------------8--8--|
|--8--8--8-----------------------------------------------|

Bridge 1 (Acoustic):

|-----------------------------------------------------|
|--------/6--5----------------------------------------|
|-----------------—---/7--5--------/7--5--------0--2--|
|-----7-------------------------7---------------------|
|--5---------------0---------5---------------3--------|
|---------------0-------------------------5-----------|

|-----------------------------------------------------|
|--------/6--5----------------------------------------|
|-----------------—---/7--5--------/7--5--------3--2--|
|-----7-------------------------7---------------------|
|--5---------------0---------5---------------3--------|
|---------------0-------------------------5-----------|

Bridge 2 (Distortion):

Gtr. 1
|-----------------------------------|
|-----------------------------------|
|--7-7-7-7-3-3-3-3-5-5-5-5—5-5-5-5--|
|--7-7-7-7-3-3-3-3-5-5-5-5-5-5-5-5--|
|--5-5-5-5-1-1-1-1-3-3-3-3-3-3-3-3--|
|-----------------------------------|
    |------------- x2 -------------|
(Immediately deaden each chord after strumming)

|-----------------------------------|
|-----------------------------------|
|--7-7-7-7-3-3-3-3-5-5-5-5—5-5-5-5--|
|--7-7-7-7-3-3-3-3-5-5-5-5-5-5-5-5--|
|--5-5-5-5-1-1-1-1-3-3-3-3-3-3-3-3--|
|-----------------------------------|
    |------------- x2 -------------|
(Continuously strum each chord)

Gtr. 2
|-------------------------------|--------------------------------|
|-------------------------------|--------------------------------|
|---10------------10b—10b-------|---10--------/--12--------------|
|---x---(x28)-------------------|---x---(x24)----x---(x8)--------|
|---8---------------------------|---8---------/--10--------------|
|-------------------------------|--------------------------------|

|--5-5-5--5--5-5-------------------------------|--------------|
|--6-6-6--6--6-6---10-10--10--10-10------------|--5--6--5--3--|
|--7-7-7--7--7-7--—10-10--10--10-10---555555---|--------------|
|--7-7-7--7--7-7---10-10--10--10-10---555555---|--------------|
|--5-5-5--5--5-5---8--8---8---8--8----333333---|--------------|
|----------------------------------------------|--------------|
      |--------------    2x    ---------------|


Intro   x1
Chorus  x1
Verse   x2
Intro   x1
Chorus  x2
Verse   x2
Chorus  x3
Bridge1 x2
Bridge2 x1
Chorus  x1  (different strum pattern)
Chorus  x1
Bridge1 x2
Suggest correction
comments
print report bad tab
6 comments total. Showing first comments.
0 reply
sxcountry 216 Aug 03, 2007 07:29 PM

Instead of what you had for the last part of the acoustic riff, it goes:
d|-----------|
A|-----------|
F|------0~---|
C|--------3~-|
G|---3~------|
C|-5~--------|

Other than that, great job!!

0 reply
Grim89674523 10 Aug 06, 2007 09:44 AM

holy

SH!T

I FRICKEN LOVE YOU MAN! XD

I am practically in tears because this is so flawless

0 reply
acworth1189 136 Aug 07, 2007 02:23 AM

haha thanks both of you :)

this was my first ever tab so im pretty proud of it :P

good catch on the acoustic riff sxcountry!

guest
You may want to rate the tab now too:
select rating
Wanna post a correction for this tab? Suggest correction