Oops, an error
Loading. Please wait.

A Whisper And A Clamor bass

version 1
version 1

Whole song

Interactive

3,779 views 3 this week
3 commentsread comments
1 2 3 4 5
x 7
add to favorites
×
Save as Personal and add changes to this tab that will be seen only by you. Learn more ›
×
You can save this tab as Personal to edit and correct it or add notes. All changes will be seen only by you. Learn more »
launch autoscroll
font size
0
reset
guitar tuner
edit
Autoscroll
slow
fast
+/-
esc
set tempo
stop
Author
Difficulty
                     * * * A Whisper & A Clamor * * *
                     * * * * * * Anberlin * * * * * *

Tabbed By: Brian
E-mail: cactaur1993@yahoo.com

Artist: Anberlin
Song: A Whisper & A Clamor
Album: Cities

Key:
~~~~~ = Let the note ring

Intro (The song starts out with guitar and drums)
G|-----------------------------------------------------------------------|
D|-----------------------------------------------------------------------|
A|3333-3-3----------1111-1-1-1111-1-1-3333-3-3----------1111-1-1-1111-1-1|
E|---------4444-4-4----------------------------4444-4-4------------------|

Verse (Growing tired of bedside resolve... I grow tired of writing songs...)
G|------------------------------------------------------------------------|
D|------------------------------------------------------------------------|
A|33333333-33333333-------------------33333333-33333333-------------------|
E|------------------44444444-44444444-------------------44444444-44444444-|

[Pause] (Guitar Break)

Chorus (Clap your hands...)
G|-----------------------------------------------------------------------|
D|-----------------------------------------------------------------------|
A|3333-3-3----------1111-1-1-1111-1-1-3333-3-3----------1111-1-1-1111-1-1|
E|---------4444-4-4----------------------------4444-4-4------------------|

Chorus Continued (Clap your hands...)
G|-----------------------------------------------------------------------|
D|-----------------------------------------------------------------------|
A|3333-3-3----------1111-1-1-1111-1-1-3333-3-3----------1111-1-1-1111-1-1|
E|---------4444-4-4----------------------------4444-4-4------------------|

Verse 2 (For most who live and breathe...)
G|------------------------------------|
D|------------------------------------|
A|33333333-33333333-------------------|
E|------------------44444444-44444444-|

Verse 2 Continued (Finally safe from the outside...)(Play the "A" string on the 3rd fret 
times and play the "E" string on the 4th fret 28 times)
G|--------------------------------------------------------------|
D|--------------------------------------------------------------|
A|33333333333333333333333333333333------------------------------|
E|---------------------------------4444444444444444444444444444-|

Chorus 2 (Clap your hands...)
G|----------------------------------------------------------------------|
D|----------------------------------------------------------------------|
A|33333333----------1111111111111111-33333333----------1111111111111111-|
E|---------44444444---------------------------44444444------------------|

Chorus 2 Continued (Clap your hands...)
G|----------------------------------------------------------------------|
D|----------------------------------------------------------------------|
A|33333333----------1111111111111111-33333333----------1111111111111111-|
E|---------44444444---------------------------44444444------------------|

Chorus 2 Continued (Clap your hands...)
G|----------------------------------------------------------------------|
D|----------------------------------------------------------------------|
A|33333333----------1111111111111111-33333333----------1111111111111111-|
E|---------44444444---------------------------44444444------------------|

Bridge (No vocals)
G|----------------------------------------------------------------|
D|----------------------------------------------------------------|
A|----------------------------------------------------------------|
E|8~~~~~~-4~~~~~~-6~~~~~~-4~~~~~~-8~~~~~~-4~~~~~~-6~~~~~~-4~~~~~~-|

Bridge Continued (It's not the lies that you sing...)
G|----------------------------------------------------------------|
D|----------------------------------------------------------------|
A|----------------------------------------------------------------|
E|8~~~~~~-4~~~~~~-6~~~~~~-4~~~~~~-8~~~~~~-4~~~~~~-6~~~~~~-4~~~~~~-|

Bridge Continued (It's not the lies that you sing...)
G|----------------------------------------------------------------|
D|----------------------------------------------------------------|
A|3-3-3-3---------1-1-1-1-1-1-1-1--3-3-3-3---------1-1-1-1-1-1-1-1|
E|--------4-4-4-4-------------------------4-4-4-4-----------------|

Last Part of Bridge (It's not the lies that you sing...)
G|----------------------------------------------------------------------|
D|----------------------------------------------------------------------|
A|33333333----------1111111111111111-33333333----------1111111111111111-|
E|---------44444444---------------------------44444444------------------|

Final Chorus (Clap your hands...)
G|----------------------------------------------------------------------|
D|----------------------------------------------------------------------|
A|33333333----------1111111111111111-33333333----------1111111111111111-|
E|---------44444444---------------------------44444444------------------|

Final Chorus Continued (Clap your hands...)
G|-------|
D|-------|
A|3~~~~~-|
E|-------|

The song ends with vocals, piano, and orchestra.

A very great song from Anberlin's newest record and enjoy the tab! :)

            
            
Suggest correction
Creating personal tab
Creating personal tab
You can edit any tab online and save it as your Personal.

You can edit, replace or remove any tab part or add personal notes – all changes will be seen only by you.

Personal tabs can be accessed anytime from any device, even offline.
Learn more »
comments
print report bad tab
3 comments total.
0 reply
jesuspunk777 145 Oct 08, 2008 11:02 AM

Good tab man.

0 reply
mithrandirjh 16 Jan 03, 2011 07:50 PM

nice job, good tab!

0 reply
himenez123 123 Nov 20, 2014 07:42 AM

The G# note on the E string sounds totally wrong. My ear tells me it's D# instead. Right?

guest
You may want to rate the tab now too:
select rating
Wanna post a correction for this tab? Suggest correction