Oops, an error
Loading. Please wait.

A Whisper And A Clamor tab

version 3
version 3

Whole song

Interactive

996 views 1 this week
no commentswrite comment
1 2 3 4 5
1 last vote to show rating
add to favorites
×
Save as Personal and add changes to this tab that will be seen only by you. Learn more ›
×
You can save this tab as Personal to edit and correct it or add notes. All changes will be seen only by you. Learn more »
launch autoscroll
font size
0
reset
how to read this tab
guitar tuner
edit
Autoscroll
slow
fast
+/-
esc
set tempo
stop
Tuning: Drop D (D a d g b e)

By Wait4Tomorrow

This is my very first tab, and i play it in drop D it sounds alright to me when i play 
it, so this is how  play it and also let me know if there are any mistakes or 
adjustments. Enjoy! :D

  0:00-0:05
E|------------------------------------------------|
B|------------------------------------------------|
G|------------------------------------------------|
D|------------------------13-13-13-13-13-13b-13-13|x2
A|------------------------------------------------|
D|-----10-10-10-10-10-10--------------------------|


  0:06-0:17
E|-----x----x----x----------------------|
B|-----x----x----x----------------------|
G|----12---15---10--------10/12/10/8----|
D|----10---13---8---------x--x--x-x-----|x2
A|----10---13---8---------8/10/8/6------|
D|----10---13---8-----------------------|


  0:17-0:39
E|------------------------------------------------------------------------|
B|------------------------------------------------------------------------|
G|-----------8-8-8-7-7-7-----------------------8-8-8-7-7-7----------------|
D|-----------------------8-8-8---------x2------------------8-8-8--------x2|x2
A|-----------------------------8-8-6-6---------------------------8-8-6-6--|
D|--10-10-10-----------------------------6-6-6----------------------------|

  0:39-1:05
E|--------------------------------------------|
B|--------------------------------------------|
G|--------------------------------------------|
D|--------------------13-13-13-13-13-13b-13-13|
A|--------------------------------------------|
D|--10-10-10-10-10-10-------------------------|

E|---x--x---x----------------|
B|---x--x---x----------------|
G|--12--x--10----10/12/10/8--|
D|--10--1--8-----x--x--x-x---|x2
A|--10--1--8-----8/10/8/6----|
D|--10--1--8-----------------|

  1:05-1:27
E|--------------------------------------------------------------------------|
B|--------------------------------------------------------------------------|
G|-----------8-8-8-7-7-7----------------------8-8-8-7-7-7-------------------|
D|-----------------------8-8-8---------x2-----------------8-8-8--------x2---|x2
A|-----------------------------8-8-6-6--------------------------8-8-6-6-----|
D|--10-10-10-----------------------------6-6-6------------------------------|

  1:27-2:01
E|--x---x--x-----|   e|---------------|
B|--x---x--x-----|   b|---------------|
G|--12--x--10----|   g|---10/12/10/8--|
D|--10--1--8-----|x6 d|---x--x--x-x---|x2
A|--10--1--8-----|   a|---8/10/8/6----|
D|--10--1--8-----|   D|---------------|

  2:01-2:23 Acoustic Riff             x2
E|--------------------------------------------------------------------------|
B|-----------------1------------------------------------1-------------------|
G|-------------------3------------------------------------3-----------------|
D|-------13-12-------------10-8---------------13-12-------------10-8--------|
A|----10---------1-------8--------6-8-10---10---------1-------8--------6-8-6|
D|-10----------1-------8--------6--------10---------1-------8--------6------|

  2:23-2:58
E|---x--x--x---|   e|---x--x--x--|   e|---------------|
B|---x--x--x---|   b|---x--x--x--|   b|---------------|
G|--12--8--10--|   g|--12--x--8--|   g|---10/12/10/8--|
D|--10--6--8---|x4 d|--10--1--6--|x2 d|---x--x--x-x---|x2
A|--10--6--8---|   a|--10--1--6--|   a|---8/10/8/6----|
D|--10--6--8---|   D|--10--1--6--|   D|---------------|

  2:58-3:25 End
E|--11-10--------------------11-10-------------------|
B|--------13-11-13-11--------------13-11-13-11-------|
G|--------------------11-12--------------------11----|
D|------------------------------------------------14-|
A|---------------------------------------------------|
D|---------------------------------------------------|

E|--------------------------------------------------------------------------|
B|-----------------1------------------------------------1-------------------|
G|-------------------3------------------------------------3-----------------|
D|-------13-12-------------10-8---------------13-12-------------10-8--------|
A|----10---------1-------8--------6-8-10---10---------1-------8--------6-8-6|
D|-10----------1-------8--------6--------10-------1-------8--------6--------|


/ = slide
b = bend
x = mute
~ = let it ring

            
            
Suggest correction
Creating personal tab
Creating personal tab
You can edit any tab online and save it as your Personal.

You can edit, replace or remove any tab part or add personal notes – all changes will be seen only by you.

Personal tabs can be accessed anytime from any device, even offline.
Learn more »
Give kudos to tab author, rate the tab!
1 2 3 4 5
comments
print report bad tab
guest
Wanna post a correction for this tab? Suggest correction