Oops, an error
Loading. Please wait.

Alexithymia tab

14,001 views 3 this week
10 commentsread comments
1 2 3 4 5
x 12
add to favorites
×
Save as Personal and add changes to this tab that will be seen only by you. Learn more ›
×
You can save this tab as Personal to edit and correct it or add notes. All changes will be seen only by you. Learn more »
launch autoscroll
font size
0
reset
how to read this tab
guitar tuner
edit
Autoscroll
slow
fast
+/-
esc
set tempo
stop
Artist:Anberlin
Song:Alexithymia
Album:Cities(2007)
Tabbed By:fret13@columbus.rr.com
Tuning: Dropped C
(d A F C G C)

Key:
~ - Hold note(s) out a.k.a. vibrato
\ - Slide down
/ - Slide up
b - bend
btc - Bend the living crap out of the string
WP - With pedal
NP - No pedal
x - Mute

|--|
|--|
|--|
|--|
|--|
|--|


Intro - Bass

Guitar 1 - Verse 1 - Clean
|-----0---0-----0-----0---0-----0-----0---0-----0-----0---0-----0-|x6
|---5---5-----5-----0---0-----0-----4---4-----4-----4---4-----4---|
|-6---------6-----2---------2-----4---------4-----4---------4-----|
|-----------------------------------------------------------------|
|-----------------------------------------------------------------|
|-----------------------------------------------------------------|

Guitar 2 - Verse 1 - 0 Tone(hard to hear) comes in late
|-0~---7~---4~-|x4
|-5~---5~---5~-|
|-6~---6~---6~-|
|--------------|
|--------------|
|--------------|

Guitar 3 - Verse 1 - May be a keyboard
|-4-----------------4-----------|
|----5-----------------5--------|
|-------6---4---4---------6--6~-|
|-------------------------------|
|-------------------------------|
|-------------------------------|

Guitar 1 - Chorus
|-----------------------------------------------|
|-----------------------------------------------|
|-----------------------------------------------|
|-11-11-11\-7-7-7---9-9-9-9-9-9-9-9-9-9-9-9-11\-|
|-11-11-11\-7-7-7---9-9-9-9-9-9-9-9-9-9-9-9-----|
|-11-11-11\-7-7-7---9-9-9-9-9-9-9-9-9-9-9-9-----|

|------------------------------------------------|
|------------------------------------------------|
|------------------------------------------------|
|-11-11-11\-7-7-7---9-9-9-9-9-9-9-9-9-9-9-9-9-9--|
|-11-11-11\-7-7-7---9-9-9-9-9-9-9-9-9-9-9-9-9-9--|
|-11-11-11\-7-7-7---9-9-9-9-9-9-9-9-9-9-9-9-9-9\-|

Guitar 2 - Chorus
|-------------------------------------------------|x2
|-------------------------------------------------|
|-------------------------------------------------|
|-11-11-11\-7-7-7-9-9-9-9-9-9-9-9-9-9-9-9-9-9-9-9-|
|-11-11-11\-7-7-7-9-9-9-9-9-9-9-9-9-9-9-9-9-9-9-9-|
|-11-11-11\-7-7-7-9-9-9-9-9-9-9-9-9-9-9-9-9-9-9-9-|

Guitar 1 - Verse 2
|-----0-------0-------0-------0-------0-------0-------0-------0---|x4
|---5---5---5---5---0---0---0---0---4---4---4---4---4---4---4---4-|
|-6-------6-------2-------2-------4-------4-------4-------4-------|
|-----------------------------------------------------------------|
|-----------------------------------------------------------------|
|-----------------------------------------------------------------|

Guitar 2 - Verse 2
|-0-0-0-0-0-0-0-0-0-0-0-0-0-0-0-0-0-0-0-0-0-0-0-0-0-0-0-0-0-0-0-0-|x6
|-5-5-5-5-5-5-5-5-0-0-0-0-0-0-0-0-5-5-5-5-5-5-5-5-4-4-4-4-4-4-4-4-|
|-6-6-6-6-6-6-6-6-2-2-2-2-2-2-2-2-4-4-4-4-4-4-4-4-4-4-4-4-4-4-4-4-|
|-----------------------------------------------------------------|
|-----------------------------------------------------------------|
|-----------------------------------------------------------------|

|----------------|
|----------------|
|----------------|
|-0-4-6-7-4-6-0--|
|----------------|
|----------------|

Guitar 3 - Verse 2 - Violins
|-4-7-5-4-0~-|
|------------|
|------------|
|------------|
|------------|
|------------|

Guitar 1 - Chorus 2
|-0-0-0-0-0-0-0-0-0-0-0-0-0-0-0-0--------------------------------|x4
|-5-5-5-5-5-5-5-5-5-5-5-5-5-5-5-5--------------------------------|
|-6-6-6-6-6-6-6-6-6-6-6-6-6-6-6-6--------------------------------|
|-6-6-6-----------7-7-7-----------9-9-9-9-9-9-9-9-9-9-9-9-9-9-9\-|
|-4-4-4-----------7-7-7-----------9-9-9-9-9-9-9-9-9-9-9-9-9-9-9\-|
|-----------------7-7-7-----------9-9-9-9-9-9-9-9-9-9-9-9-9-9-9\-|

Guitar 2 - Chorus 2
|-------------------------------------------------|x4
|-------------------------------------------------|
|-------------------------------------------------|
|-11-11-11\-7-7-7-9-9-9-9-9-9-9-9-9-9-9-9-9-9-9-9-|
|-11-11-11\-7-7-7-9-9-9-9-9-9-9-9-9-9-9-9-9-9-9-9-|
|-11-11-11\-7-7-7-9-9-9-9-9-9-9-9-9-9-9-9-9-9-9-9-|

Guitar 1 - Interlude v-twenties
|----------------/19b20202020----14----14b16b14----14----14b16b14-|
|-----------------------------12----12----------12----12----------|
|-----------------------------------------------------------------|
|---------/13~----------------------------------------------------|
|-2~--4~--/11~----------------------------------------------------|
|-2~--4~--/11~----------------------------------------------------|

|----16----16b18b16----16----16b18b16----18----18b19b18----18----18b19b18-|
|-14----14----------14----14----------16----16----------16----16----------|
|-------------------------------------------------------------------------|
|-------------------------------------------------------------------------|
|-------------------------------------------------------------------------|
|-------------------------------------------------------------------------|

|----18----18b19b18-18-19191919181919191918-|
|-16----16----------------------------------|
|-------------------------------------------|
|-------------------------------------------|
|-------------------------------------------|
|-------------------------------------------|

|----14----14b16b14----14----14b16b14----16----16b18b16----16----16b18b16-|
|-12----12----------12----12----------14----14----------14----14----------|
|-------------------------------------------------------------------------|
|-------------------------------------------------------------------------|
|-------------------------------------------------------------------------|
|-------------------------------------------------------------------------|

|----18----18b19b18----18----18b19b18----18----18b19b18-x-x-x-18btc-|
|-16----16----------16----16----------16----16----------------------|
|-------------------------------------------------------------------|
|-------------------------------------------------------------------|
|-------------------------------------------------------------------|
|-------------------------------------------------------------------|

Guitar 2 - Interlude
|-WP------------------NP-|
|-WP------------------NP-|
|-WP--------------11~-NP-|
|-WP---------13~------NP-|
|-WP-2~--4~--11~------NP-|
|-WP-2~--4~--11~------NP-|

|--------------------------------------------------------|x2
|--------------------------------------------------------|
|--------------------------------------------------------|
|-2--2--2--2--4--4--4--4--13--13--13--13--13--13--13--13-|
|-2--2--2--2--4--4--4--4--11--11--11--11--11--11--11--11-|
|-2--2--2--2--4--4--4--4--11--11--11--11--11--11--11--11-|


Guitar 1 - Breakdown
|-----0-------0-------0-------0-------0-------0-------0-------0---|x2
|---5---5---5---5---0---0---0---0---5---5---5---5---4---4---4---4-|
|-6-------6-------2-------2-------4-------4-------4-------4-------|
|-----------------------------------------------------------------|
|-----------------------------------------------------------------|
|-----------------------------------------------------------------|

Guitar 2 - Breakdown - 0 Tone
|-0~--7~--4~-|x2
|-5~--5~--5~-|
|-6~--6~--6~-|
|------------|
|------------|
|------------|

Guitar 1 - Chorus 2
|-0-0-0-0-0-0-0-0-0-0-0-0-0-0-0-0--------------------------------|x4
|-5-5-5-5-5-5-5-5-5-5-5-5-5-5-5-5--------------------------------|
|-6-6-6-6-6-6-6-6-6-6-6-6-6-6-6-6--------------------------------|
|-6-6-6-----------7-7-7-----------9-9-9-9-9-9-9-9-9-9-9-9-9-9-9\-|
|-4-4-4-----------7-7-7-----------9-9-9-9-9-9-9-9-9-9-9-9-9-9-9\-|
|-----------------7-7-7-----------9-9-9-9-9-9-9-9-9-9-9-9-9-9-9\-|

Guitar 2 - Chorus 2
|-------------------------------------------------|x4
|-------------------------------------------------|
|-------------------------------------------------|
|-11-11-11\-7-7-7-9-9-9-9-9-9-9-9-9-9-9-9-9-9-9-9-|
|-11-11-11\-7-7-7-9-9-9-9-9-9-9-9-9-9-9-9-9-9-9-9-|
|-11-11-11\-7-7-7-9-9-9-9-9-9-9-9-9-9-9-9-9-9-9-9-|

Both Guitars - Outro
|-0---0---0~-|
|-5---5---5~-|
|-6---6---6~-|
|-7---7---7~-|
|-7---7---7~-|
|-7---7---7~-|
Suggest correction
Creating personal tab
Creating personal tab
You can edit any tab online and save it as your Personal.

You can edit, replace or remove any tab part or add personal notes – all changes will be seen only by you.

Personal tabs can be accessed anytime from any device, even offline.
Learn more »
comments
print report bad tab
10 comments total. Showing first comments.
0 reply
wsdash92 10 Mar 19, 2007 06:31 PM

Thank you for tabbing pretty much the best song off their new album. Great but why do drop C the way you did?

0 reply
fret13 1,031 Mar 20, 2007 02:37 AM

if it wasnt for the open notes on the high strings then it would be able to play in dropped d, thanks though

0 reply
U B the band 3,023 Nov 03, 2007 06:10 AM

Good job, 5 Stars from me.

guest
You may want to rate the tab now too:
select rating
Wanna post a correction for this tab? Suggest correction