Oops, an error
Loading. Please wait.

Alexithymia bass

version 2
version 2

Whole song

4,301 views 3 this week
1 commentread comment
1 2 3 4 5
x 8
add to favorites
×
Save as Personal and add changes to this tab that will be seen only by you. Learn more ›
×
You can save this tab as Personal to edit and correct it or add notes. All changes will be seen only by you. Learn more »
launch autoscroll
font size
0
reset
guitar tuner
edit
Autoscroll
slow
fast
+/-
esc
set tempo
stop
Author
Difficulty
                      _________________________
                      \Alexithymia - Anberlin /
                      /_______________________\

Tabbed By: Brian
E-mail: cactaur1993@yahoo.com

Artist: Anberlin
Song: Alexithymia
Album: Cities

Key:
~~~~~ = let the note ring

Intro 
G|----------------------------|
D|----------------------------| 
A|22-22-02--------------------|
E|---------33~~55-55-35--35~~-|

Verse 1 (Don't try to wake me up...)
G|----------------------------|
D|----------------------------| 
A|22-22-02--------------------|
E|---------33~~55-55-35--35~~-|

(Don't believe anything you say...)
G|----------------------------|
D|----------------------------| 
A|22-22-02--------------------|
E|---------33~~55-55-35--35~~-|

(Bricks to this old house are breaking...)
G|----------------------------|
D|----------------------------| 
A|22-22-02--------------------|
E|---------33~~55-55-35--35~~-|

(It's alarming how loud the silence screams...)
G|----------------------------|
D|----------------------------| 
A|22-22-02--------------------|
E|---------33~~55-55-35--35~~-|

(Addictions fill the table where the family used to sit...)
G|----------------------------|
D|----------------------------| 
A|22-22-02--------------------|
E|---------33~~55-55-35--35~~-|

(To the sounds of a record player...)
G|----------------------------|
D|----------------------------| 
A|22-22-02--------------------|
E|---------33~~55-55-35--35~~-|

Chorus (With downcast eyes...)
G|-------------------------------------------------------|
D|-------------------------------------------------------|
A|22222-----------------------22222----------------------|
E|------33333-55555~~-55555~~-------33333-55555~~-55555~~|

[Pause] (Clean Guitar, Vocals, and Drum Break)

Verse 2 (Are you where you thought you would be?...)
G|---------------------------------------|
D|---------------------------------------|
A|2-2-02-542---------------542-------542-|
E|-----------33333333-5555-----33-55-----|

(Opposition rests in the hearts with no opportunity...)
G|---------------------------------------|
D|---------------------------------------|
A|2-2-02-542---------------542-------542-|
E|-----------33333333-5555-----33-55-----|

(It's not that we don't talk...)
G|---------------------------------------|
D|---------------------------------------|
A|2-2-02-542---------------542-------542-|
E|-----------33333333-5555-----33-55-----|

(Like a politician who lost in the course...)
G|---------------------------------------|
D|---------------------------------------|
A|2-2-02-542---------------542-------542-|
E|-----------33333333-5555-----33-55-----|

Chorus 2 (With downcast eyes...)
G|-------------------------------------------------------|
D|-------------------------------------------------------|
A|22222-----------------------22222----------------------|
E|------33333-55555~~-55555~~-------33333-55555~~-55555~~|

(With downcast eyes...)
G|-------------------------------------------------------|
D|-------------------------------------------------------|
A|22222-----------------------22222----------------------|
E|------33333-55555~~-55555~~-------33333-55555~~-55555~~|

[Pause] (Electronic Effects and Clean Guitar Break)

Solo
G|--------------------------------------------------------------------|
D|--------------------------------------------------------------------|
A|-----------------2222222222222222-4444444444444444------------------|
E|5555555555555555-----------------------------------3333333333333333-|

Solo Continued (with Choir Voices)
G|--------------------------------------------------------------------|
D|--------------------------------------------------------------------|
A|-----------------2222222222222222-4444444444444444------------------|
E|5555555555555555-----------------------------------3333333333333333-|

[Rest](Vocals, Choir, and Acoustic Guitar Break)(Don't try to wake me up...)

Final Chorus (With downcast eyes...)
G|-------------------------------------------------------|
D|-------------------------------------------------------|
A|22222-----------------------22222----------------------|
E|------33333-55555~~-55555~~-------33333-55555~~-55555~~|

(With downcast eyes...)
G|-------------------------------------------------------|
D|-------------------------------------------------------|
A|22222-----------------------22222----------------------|
E|------33333-55555~~-55555~~-------33333-55555~~-55555~~|

Outro (Alive...)
G|----------|
D|----------|
A|----------|
E|3-3-3~~~~~|

I hope you enjoyed it! Alexithymia is an awesome song from Anberlin's brand new CD "Cities"! :)

            
            
Suggest correction
Creating personal tab
Creating personal tab
You can edit any tab online and save it as your Personal.

You can edit, replace or remove any tab part or add personal notes – all changes will be seen only by you.

Personal tabs can be accessed anytime from any device, even offline.
Learn more »
comments
print report bad tab
1 comment total.
0 reply
jesuspunk777 145 Jul 23, 2008 09:16 AM

it sounds really good you should tab out Godspeed or Reclusion

guest
You may want to rate the tab now too:
select rating
Wanna post a correction for this tab? Suggest correction