Oops, an error
Loading. Please wait.

Breaking tab

version 2
version 2

Whole song

Interactive

27,010 views 9 this week
10 commentsread comments
1 2 3 4 5
x 22
add to favorites
×
Save as Personal and add changes to this tab that will be seen only by you. Learn more ›
×
You can save this tab as Personal to edit and correct it or add notes. All changes will be seen only by you. Learn more »
launch autoscroll
font size
0
reset
how to read this tab
guitar tuner
edit
Autoscroll
slow
fast
+/-
esc
set tempo
stop
-------------------------------------------------------------------------------
                             BREAKING - Anberlin
-------------------------------------------------------------------------------

The other tabs are just too horrible… i made an attempt at a better one. it’s not 
perfect but i hope u peeps like it :)

Tabbed by: Mitch Robertson
Email: ju5t2good2btru@hotmail.com

Tuning: Normal


Intro/Verse

Guitar 1
e|---------------------------------------------------------------|
B|---------------------------------------------------------------|
G|-----4-------4-------4-------4-------4-------4-------4-------4-|
D|-----2-------2-------2-------2-------2-------2-------2-------2-|
A|-4-4-----4-4-----0-0-----0-0-----2-2-----2-2-----4-4-----4-4---|
E|---------------------------------------------------------------|

e|---------------------------------------------------------------|
B|---------------------------------------------------------------|
G|-----4-------4-------4-------4-------4-------4-------4-------4-|
D|-----2-------2-------2-------2-------2-------2-------4-------4-|
A|-4-4-----4-4-----0-0-----0-0-----2-2-----2-2-----2-2-----2-2---|
E|---------------------------------------------------------------| x3

Guitar 2  (comes in after guitar 1 plays twice)
e|--------------------------------------------------------------|
B|--------------------------------------------------------------|
G|---9-8-------------9-8------------9-8-------------9-8---------|
D|-------11--------------7--------------9---------------11------|
A|--------------------------------------------------------------|
E|--------------------------------------------------------------| x2

then

Guitars 1 and 2
e|------|
B|------|
G|-9999-|
D|-9999-|
A|-7777-|
E|------|


Bridge

Guitars 1 and 2
e|-------------------------------------------------------------------------|
B|-------------------------------------------------------------------------|
G|---------------------------------6-6-6-6-4-4-4-4-4-4-4-4-4-4-4-4-9-9-9-9-|
D|-7-7-7-7-7-7-7-7-7-7-7-7-7-7-7-7-6-6-6-6-4-4-4-4-4-4-4-4-4-4-4-4-9-9-9-9-|
A|-7-7-7-7-7-7-7-7-7-7-7-7-7-7-7-7-4-4-4-4-2-2-2-2-2-2-2-2-2-2-2-2-7-7-7-7-|
E|-5-5-5-5-5-5-5-5-5-5-5-5-5-5-5-5-----------------------------------------|

e|-------------------------------------------------------------------------|
B|-------------------------------------------------------------------------|
G|---------------------------------6-6-6-6-4-4-4-4-4-4-4-4-----------------|
D|-7-7-7-7-7-7-7-7-7-7-7-7-7-7-7-7-6-6-6-6-4-4-4-4-4-4-4-4-----------------|
A|-7-7-7-7-7-7-7-7-7-7-7-7—7-7-7-7-4-4-4-4-2-2-2-2-2-2-2-2-----------------|
E|-5-5-5-5-5-5-5-5-5-5-5-5-5-5-5-5-----------------------------------------|


Chorus

Guitars 1 and 2
e|-----------------------------------------------------------------|
B|-----------------------------------------------------------------|
G|-9-9-9-9-9-9-9-9-----------------4-4-4-4-4-4-4-4-6-6-6-6-6-6-6-6-|
D|-9-9-9-9-9-9-9-9-7-7-7-7-7-7-7-7-4-4-4-4-4-4-4-4-6-6-6-6-6-6-6-6-|
A|-7-7-7-7-7-7-7-7-7-7-7-7-7-7-7-7-2-2-2-2-2-2-2-2-4-4-4-4-4-4-4-4-|
E|-----------------5-5-5-5-5-5-5-5---------------------------------|

e|-----------------------------------------------------------------|
B|-----------------------------------------------------------------|
G|-9-9-9-9-9-9-9-9-----------------4-4-4-4-4-4-4-4-4-4-4-4---------|
D|-9-9-9-9-9-9-9-9-7-7-7-7-7-7-7-7-4-4-4-4-4-4-4-4-4-4-4-4---------|
A|-7-7-7-7-7-7-7-7-7-7-7-7-7-7-7-7-2-2-2-2-2-2-2-2-2-2-2-2-6-7-4-6-|
E|-----------------5-5-5-5-5-5-5-5---------------------------------|

e|-----------------------------------------------------------------|
B|-----------------------------------------------------------------|
G|-9-9-9-9-9-9-9-9-----------------4-4-4-4-4-4-4-4-6-6-6-6-6-6-6-6-|
D|-9-9-9-9-9-9-9-9-7-7-7-7-7-7-7-7-4-4-4-4-4-4-4-4-6-6-6-6-6-6-6-6-|
A|-7-7-7-7-7-7-7-7-7-7-7-7-7-7-7-7-2-2-2-2-2-2-2-2-4-4-4-4-4-4-4-4-|
E|-----------------5-5-5-5-5-5-5-5---------------------------------|

e|-----------------------------------------------------------------|
B|-----------------------------------------------------------------|
G|-9-9-9-9-9-9-9-9-----------------4-4-4-4-4-4-4-4-4-4-4-4-4-4-4-4-|
D|-9-9-9-9-9-9-9-9-7-7-7-7-7-7-7-7-4-4-4-4-4-4-4-4-4-4-4-4-4-4-4-4-|
A|-7-7-7-7-7-7-7-7-7-7-7-7-7-7-7-7-2-2-2-2-2-2-2-2-2-2-2-2-2-2-2-2-|
E|-----------------5-5-5-5-5-5-5-5---------------------------------| x2


Verse 2

Guitar 1
e|---------------------------------------------------------------|
B|---------------------------------------------------------------|
G|-----4-------4-------4-------4-------4-------4-------4-------4-|
D|-----2-------2-------2-------2-------2-------2-------2-------2-|
A|-4-4-----4-4-----0-0-----0-0-----2-2-----2-2-----4-4-----4-4---|
E|---------------------------------------------------------------|

e|---------------------------------------------------------------|
B|---------------------------------------------------------------|
G|-----4-------4-------4-------4-------4-------4-------4-------4-|
D|-----2-------2-------2-------2-------2-------2-------4-------4-|
A|-4-4-----4-4-----0-0-----0-0-----2-2-----2-2-----2-2-----2-2---|
E|---------------------------------------------------------------| x2


Guitar 2
e|-----------------------------------------------------------------|
B|-----------------------------------------------------------------|
G|-6-6-6-6-6-6-6-6-----------------4-4-4-4-4-4-4-4-6-6-6-6-6-6-6-6-|
D|-6-6-6-6-6-6-6-6-7-7-7-7-7-7-7-7-4-4-4-4-4-4-4-4-6-6-6-6-6-6-6-6-|
A|-4-4-4-4-4-4-4-4-7-7-7-7-7-7-7-7-2-2-2-2-2-2-2-2-4-4-4-4-4-4-4-4-|
E|-----------------5-5-5-5-5-5-5-5---------------------------------| x4
P.M. . . . . . . . . . . . . . . . . . . . . . . . . . . . . . . .
   ^ don’t play  ^
     the 1st time

then

Guitars 1 and 2
e|------|
B|------|
G|-9999-|
D|-9999-|
A|-7777-|
E|------|


Bridge

Guitars 1 and 2
e|-------------------------------------------------------------------------|
B|-------------------------------------------------------------------------|
G|---------------------------------6-6-6-6-4-4-4-4-4-4-4-4-4-4-4-4-9-9-9-9-|
D|-7-7-7-7-7-7-7-7-7-7-7-7-7-7-7-7-6-6-6-6-4-4-4-4-4-4-4-4-4-4-4-4-9-9-9-9-|
A|-7-7-7-7-7-7-7-7-7-7-7-7-7-7-7-7-4-4-4-4-2-2-2-2-2-2-2-2-2-2-2-2-7-7-7-7-|
E|-5-5-5-5-5-5-5-5-5-5-5-5-5-5-5-5-----------------------------------------|

e|-------------------------------------------------------------------------|
B|-------------------------------------------------------------------------|
G|---------------------------------6-6-6-6-4-4-4-4-4-4-4-4-----------------|
D|-7-7-7-7-7-7-7-7-7-7-7-7-7-7-7-7-6-6-6-6-4-4-4-4-4-4-4-4---------4h6p4h6-|
A|-7-7-7-7-7-7-7-7-7-7-7-7—7-7-7-7-4-4-4-4-2-2-2-2-2-2-2-2-4h6p4h6---------|
E|-5-5-5-5-5-5-5-5-5-5-5-5-5-5-5-5-----------------------------------------|


Chorus

Guitars 1 and 2
e|-----------------------------------------------------------------|
B|-----------------------------------------------------------------|
G|-9-9-9-9-9-9-9-9-----------------4-4-4-4-4-4-4-4-6-6-6-6-6-6-6-6-|
D|-9-9-9-9-9-9-9-9-7-7-7-7-7-7-7-7-4-4-4-4-4-4-4-4-6-6-6-6-6-6-6-6-|
A|-7-7-7-7-7-7-7-7-7-7-7-7-7-7-7-7-2-2-2-2-2-2-2-2-4-4-4-4-4-4-4-4-|
E|-----------------5-5-5-5-5-5-5-5---------------------------------|

e|-----------------------------------------------------------------|
B|-----------------------------------------------------------------|
G|-9-9-9-9-9-9-9-9-----------------4-4-4-4-4-4-4-4-4-4-4-4---------|
D|-9-9-9-9-9-9-9-9-7-7-7-7-7-7-7-7-4-4-4-4-4-4-4-4-4-4-4-4---------|
A|-7-7-7-7-7-7-7-7-7-7-7-7-7-7-7-7-2-2-2-2-2-2-2-2-2-2-2-2-6-7-4-6-|
E|-----------------5-5-5-5-5-5-5-5---------------------------------|

e|-----------------------------------------------------------------|
B|-----------------------------------------------------------------|
G|-9-9-9-9-9-9-9-9-----------------4-4-4-4-4-4-4-4-6-6-6-6-6-6-6-6-|
D|-9-9-9-9-9-9-9-9-7-7-7-7-7-7-7-7-4-4-4-4-4-4-4-4-6-6-6-6-6-6-6-6-|
A|-7-7-7-7-7-7-7-7-7-7-7-7-7-7-7-7-2-2-2-2-2-2-2-2-4-4-4-4-4-4-4-4-|
E|-----------------5-5-5-5-5-5-5-5---------------------------------|

e|-----------------------------------------------------------------|
B|-----------------------------------------------------------------|
G|-9-9-9-9-9-9-9-9-----------------4-4-4-4-4-4-4-4-4-4-4-4---------|
D|-9-9-9-9-9-9-9-9-7-7-7-7-7-7-7-7-4-4-4-4-4-4-4-4-4-4-4-4-2-------|
A|-7-7-7-7-7-7-7-7-7-7-7-7-7-7-7-7-2-2-2-2-2-2-2-2-2-2-2-2-2-------|
E|-----------------5-5-5-5-5-5-5-5-------------------------0-------|

Interlude

Guitar 1
e|-----------------------------------------------------------------|
B|-----------------------------------------------------------------|
G|-----------------------------------------------------------------|
D|-4-4-4-4-4-4-4-4-4-4-4-4-4-4-4-4-7-7-7-7-7-7-7-7-7-7-7-7-7-7-7-7-|
A|-4-4-4-4-4-4-4-4-4-4-4-4-4-4-4-4-7-7-7-7-7-7-7-7-7-7-7-7-7-7-7-7-|
E|-2-2-2-2-2-2-2-2-2-2-2-2-2-2-2-2-5-5-5-5-5-5-5-5-5-5-5-5-5-5-5-5-|
P.M. . . . . . . . . . . . . . . . . . . . . . . . . . . . . . . .

e|-----------------------------------------------------------------|
B|-----------------------------------------------------------------|
G|-4-4-4-4-4-4-4-4-4-4-4-4-4-4-4-4-9-9-9-9-9-9-9-9-9-9-9-9-9-9-9-9-|
D|-4-4-4-4-4-4-4-4-4-4-4-4-4-4-4-4-9-9-9-9-9-9-9-9-9-9-9-9-9-9-9-9-|
A|-2-2-2-2-2-2-2-2-2-2-2-2-2-2-2-2-7-7-7-7-7-7-7-7-7-7-7-7-7-7-7-7-|
E|-----------------------------------------------------------------| x2
P.M. . . . . . . . . . . . . . . . . . . . . . . . . . . . . . . .

Guitar 2
e|-9-9-9-9-9-9-91112121214141414\--5-5-5-5-5-5-5-5-5-5-5-5-5-5-7-9-|
B|-----------------------------------------------------------------|
G|-----------------------------------------------------------------|
D|-----------------------------------------------------------------|
A|-----------------------------------------------------------------|
E|-----------------------------------------------------------------|

e|-7-7-7-7-7-7-7-7-7-7-7-7-7-7-7-714141414141414141414141414141414-|
B|-----------------------------------------------------------------|
G|-----------------------------------------------------------------|
D|-----------------------------------------------------------------|
A|-----------------------------------------------------------------|
E|-----------------------------------------------------------------| x2


Piano Bit

e|-----------------------------------------------------------------|
B|-----------------------------------------------------------------|
G|-4~--------------------------------------------------------------|
D|---------------2~-----------4h6-4~---------------6~--------------|
A|-----------------------------------------------------------------|
E|-----------------------------------------------------------------|

e|-----------------------------------------------------------------|
B|-----------------------------------------------------------------|
G|-4~--------------------------------------------------------------|
D|---------------2~-----------4h6-4~-------------------------------|
A|-----------------------------------------------------------------|
E|-----------------------------------------------------------------|


Chorus

Guitars 1 and 2
e|-----------------------------------------------------------------|
B|-----------------------------------------------------------------|
G|-9-9-9-9-9-9-9-9-----------------4-4-4-4-4-4-4-4-6-6-6-6-6-6-6-6-|
D|-9-9-9-9-9-9-9-9-7-7-7-7-7-7-7-7-4-4-4-4-4-4-4-4-6-6-6-6-6-6-6-6-|
A|-7-7-7-7-7-7-7-7-7-7-7-7-7-7-7-7-2-2-2-2-2-2-2-2-4-4-4-4-4-4-4-4-|
E|-----------------5-5-5-5-5-5-5-5---------------------------------|

e|-----------------------------------------------------------------|
B|-----------------------------------------------------------------|
G|-9-9-9-9-9-9-9-9-----------------4-4-4-4-4-4-4-4-4-4-4-4---------|
D|-9-9-9-9-9-9-9-9-7-7-7-7-7-7-7-7-4-4-4-4-4-4-4-4-4-4-4-4---------|
A|-7-7-7-7-7-7-7-7-7-7-7-7-7-7-7-7-2-2-2-2-2-2-2-2-2-2-2-2-6-7-4-6-|
E|-----------------5-5-5-5-5-5-5-5---------------------------------|

e|-----------------------------------------------------------------|
B|-----------------------------------------------------------------|
G|-9-9-9-9-9-9-9-9-----------------4-4-4-4-4-4-4-4-6-6-6-6-6-6-6-6-|
D|-9-9-9-9-9-9-9-9-7-7-7-7-7-7-7-7-4-4-4-4-4-4-4-4-6-6-6-6-6-6-6-6-|
A|-7-7-7-7-7-7-7-7-7-7-7-7-7-7-7-7-2-2-2-2-2-2-2-2-4-4-4-4-4-4-4-4-|
E|-----------------5-5-5-5-5-5-5-5---------------------------------|

e|-----------------------------------------------------------------|
B|-----------------------------------------------------------------|
G|-9-9-9-9-9-9-9-9-----------------4-4-4-4-4-4-4-4-4-4-4-4-4-4-4-4-|
D|-9-9-9-9-9-9-9-9-7-7-7-7-7-7-7-7-4-4-4-4-4-4-4-4-4-4-4-4-4-4-4-4-|
A|-7-7-7-7-7-7-7-7-7-7-7-7-7-7-7-7-2-2-2-2-2-2-2-2-2-2-2-2-2-2-2-2-|
E|-----------------5-5-5-5-5-5-5-5---------------------------------| x2

e|-----------------------------------------------------------------|
B|-----------------------------------------------------------------|
G|-9~--------------------------------------------------------------|
D|-9~--------------------------------------------------------------|
A|-7~--------------------------------------------------------------|
E|-----------------------------------------------------------------|

| /    slide up
| \    slide down
| h    hammer-on
| p    pull-off
| ~    hold note
| +    harmonic
| x    mute note
| P.M. palm mute
===============================================================================

            
            
Suggest correction
Creating personal tab
Creating personal tab
You can edit any tab online and save it as your Personal.

You can edit, replace or remove any tab part or add personal notes – all changes will be seen only by you.

Personal tabs can be accessed anytime from any device, even offline.
Learn more »
comments
print report bad tab
10 comments total. Showing first comments.
+1 reply
Dills1212 31 Sep 17, 2009 01:16 AM

us peeps like it

+3 reply
Dills1212 31 Nov 30, 2009 01:18 AM

lol tuning: normal... haha not standard. dont worry mitch im sure all the 4 people who rated understood

0 reply
hate2love3434 10 Dec 28, 2009 09:10 PM

thi tab is good, except the intro sounds a bit off to me

guest
You may want to rate the tab now too:
select rating
Wanna post a correction for this tab? Suggest correction