Oops, an error
Loading. Please wait.

Breathe Tab

version 2
version 2

Whole song

1,166 views 1 this week
no commentswrite comment
1 2 3 4 5
accurate
x 3
add to favorites
launch autoscroll
font size
0
reset
how to read this tab
guitar tuner
Autoscroll
slow
fast
+/-
esc
set tempo
stop
Help us to improve Ultimate-Guitar.com Take our survey!
×
Author
Difficulty
novice
Anberlin
New Surrender
Breath

Chords-
E-    079900
Emaj7- x69900
C#m7- 9x9900
A2-   x09900

Into-  A2   Emaj7    E
E|---------[x3]--------->------------------7---|
A|---------------------->----------------------|
D|-----9-----9------9--->-----9-----9----------|
G|----9-9---9-9----9---->----9-9---9-9---9-----|
B|---0---0-6---6/7------>---0---0-6---6/7------|
E|---------------------->----------------------|

Verse 1- (Either play the full chords or you can pick around with variations
          To what is in the intro, make it your own; it’s more fun that way!)

A2    Emaj7     E             
This is surrender,
A2            Emaj7     E  
To a war, to life I’ve lived.
A2              Emaj7   E        
Scars and stripes forever,
E
In need of change, I can’t resist.

Pre-Chorus- 

A2              Emaj7       E
No need to hide, anything, anymore.
A2            Emaj7      E A2 E  
Can return to who i was before.

Chorus-

E                     Emaj7 
I can finally breath, suddenly alive.
C#m7                 A2
I can finally move, what feels revive.
                   ('cuz I realize)
Verse 2-

A2            Emaj7   E  
This long of a struggle,
A2             Emaj7    E  
Finally opend up my eyes,
A2            Emaj7  E  
Revolutions not easy,
E
With a civil war on the inside.

Solo – (just play around with some of these notes, make it our own)

E|------(12)-(11)-7--9p7---------------------------------------------|
A|--5h7--------------------------------------------------------------|
D|-------------------------------------------------------------------|
G|-------------------------------------------------------------------|
B|-------------------------------------------------------------------|
E|-------------------------------------------------------------------|
Suggest correction
What's this?
You can suggest a correction to this tab. Community and Mods will review your correction and vote to approve or reject it.
comments
We did not receive enough feedback on this tab! Please rate:
print report bad tab
1 2 3 4 5
guest
You may want to rate the tab now too:
select rating
Please do not post tabs as comments. Select "correction" instead!