Oops, an error
Loading. Please wait.

Disappear Tab

version 1
version 1

Whole song

Interactive

2,506 views 1 this week
4 commentsread comments
1 2 3 4 5
accurate
x 3
add to favorites
launch autoscroll
font size
0
reset
how to read this tab
guitar tuner
Autoscroll
slow
fast
+/-
esc
set tempo
stop
Help us to improve Ultimate-Guitar.com Take our survey!
×
Contributor
Song: Disappear
Artist: Anberlin
Album: New Surrender

Tuning: Dropped D (DADGBE)
Key:

t = tremolo picking
.. = Palm Muting


Intro:

3 times
E||------------------------------------------------------------------------|
B||----------6------6-----6-----6---------6--------6-----5--6-----5---6----|
G||------7--------7-----7-----7-------7---------7------5--5-----5---5------|
D||----5---5----5-----5-----5-------8---8-----8---8------------------------|
A||------------------------------------------------------------------------|
D||------------------------------------------------------------------------|

End on
E||---------|
B||---------|
G||---------|
D||----5----|
A||----5----|
D||----5----|

Verse

2 times
E||------------------------------------------------------------------------|
B||------------------------------------------------------------------------|
G||------------------------------------------------------------------------|
D||-5-5-5--x--5--x--5-5-5-5--x-5--x--5-8-8-8--x--8--x--8-3-3-3--x--3--x--3-|
A||-5-5-5--x--5--x--5-5-5-5--x-5--x--5-8-8-8--x--8--x--8-3-3-3--x--3--x--3-|
D||-5-5-5--x--5--x--5-5-5-5--x-5--x--5-8-8-8--x--8--x--8-3-3-3--x--3--x--3-|


Pre-Chorus:
E||-----------------------------------------------------------|
B||-----------------------------------------------------------|
G||-----------------------------------------------------------|
D||----1----------5----------3--------------------------------|
A||----1----------5----------3-----X2---1-1-1--0-0-0----------|
D||----1----------5----------3------------------------3-3-----|

Chorus:

E||-------------------------------------------------------------------------|
B||-------------------------------------------------------------------------|
G||-------------------------------------------------------------------------|
D||----5-5-5-5-5-5-5-5-1-1-1-1-1-1-1-1-8-8-8-8-8-8-8-8----------------------|
A||----5-5-5-5-5-5-5-5-1-1-1-1-1-1-1-1-8-8-8-8-8-8-8-8---1-1-0-0------------|
D||----5-5-5-5-5-5-5-5-1-1-1-1-1-1-1-1-8-8-8-8-8-8-8-8-----------3-3-0-0----|

E||-------------------------------------------------------------------------|
B||-------------------------------------------------------------------------|
G||-------------------------------------------------------------------------|
D||----5-5-5-5-5-5-5-5-1-1-1-1-1-1-1-1-8-8-8-8-8-8-8-8-8-8-8-8-8-8-8-8------|
A||----5-5-5-5-5-5-5-5-1-1-1-1-1-1-1-1-8-8-8-8-8-8-8-8-8-8-8-8-8-8-8-8------|
D||----5-5-5-5-5-5-5-5-1-1-1-1-1-1-1-1-8-8-8-8-8-8-8-8-8-8-8-8-8-8-8-8------|

E||-------------------------------------------------------------------------|
B||-------------------------------------------------------------------------|
G||-------------------------------------------------------------------------|
D||----5-5-5-5-5-5-5-5-1-1-1-1-1-1-1-1-8-8-8-8-8-8-8-8----------------------|
A||----5-5-5-5-5-5-5-5-1-1-1-1-1-1-1-1-8-8-8-8-8-8-8-8---1-1-0-0------------|
D||----5-5-5-5-5-5-5-5-1-1-1-1-1-1-1-1-8-8-8-8-8-8-8-8-----------3-3-0-0----|

E||----------------------------------------|
B||----------------------------------------|
G||----------------------------------------|
D||-----1-1-1-1-1-1-1-1-1-1-1-1-1-1-1-1----|
A||-----1-1-1-1-1-1-1-1-1-1-1-1-1-1-1-1----|
D||-----1-1-1-1-1-1-1-1-1-1-1-1-1-1-1-1----|

Intro Again:

2 times
E||------------------------------------------------------------------------|
B||----------6------6-----6-----6---------6--------6-----5--6-----5---6----|
G||------7--------7-----7-----7-------7---------7------5--5-----5---5------|
D||----5---5----5-----5-----5-------8---8-----8---8------------------------|
A||------------------------------------------------------------------------|
D||------------------------------------------------------------------------|

Verse:

E||---------------------------------------------------------------------|
B||---------------------------------------------------------------------|
G||---------------------------------------------------------------------|
D||-5-5-5-5-5-5-5-5-5-5-5-5-5-5-5-5-8-8-8-8-8-8-8-8-3-3-3-3-3-3-3-3-----|X2
A||-5-5-5-5-5-5-5-5-5-5-5-5-5-5-5-5-8-8-8-8-8-8-8-8-3-3-3-3-3-3-3-3-----|
D||-5-5-5-5-5-5-5-5-5-5-5-5-5-5-5-5-8-8-8-8-8-8-8-8-3-3-3-3-3-3-3-3-----|
    . . . . . . . . . . . . . . . . . . . . . . . . . . . . . . . .

E||----------------------------------------------------------------------|
B||----------------------------------------------------------------------|
G||----------------------------------------------------------------------|
D||-5-5-5-5-5-5-5-5-5-5-5-5-5-5-5-5-8-8-8-8-8-8-8-8-3-3-3-3-3-3-3-3------| X2
A||-5-5-5-5-5-5-5-5-5-5-5-5-5-5-5-5-8-8-8-8-8-8-8-8-3-3-3-3-3-3-3-3------|
D||-5-5-5-5-5-5-5-5-5-5-5-5-5-5-5-5-8-8-8-8-8-8-8-8-3-3-3-3-3-3-3-3------|
          .   . .   . .   . .   . .   . .   . .   . .   . .   . .

Pre-Chorus:

E||------------------------------------------------------------|
B||------------------------------------------------------------|
G||------------------------------------------------------------|
D||---1----------5----------3------------------------3-3-3-----|
A||---1----------5----------3--------1-1-1---3-3-3-------------|
D||---1----------5----------3----------------------------------|


Chorus:

E||-------------------------------------------------------------------------|
B||-------------------------------------------------------------------------|
G||-------------------------------------------------------------------------|
D||----5-5-5-5-5-5-5-5-1-1-1-1-1-1-1-1-8-8-8-8-8-8-8-8----------------------|
A||----5-5-5-5-5-5-5-5-1-1-1-1-1-1-1-1-8-8-8-8-8-8-8-8---1-1-0-0------------|
D||----5-5-5-5-5-5-5-5-1-1-1-1-1-1-1-1-8-8-8-8-8-8-8-8-----------3-3-0-0----|

E||-------------------------------------------------------------------------|
B||-------------------------------------------------------------------------|
G||-------------------------------------------------------------------------|
D||----5-5-5-5-5-5-5-5-1-1-1-1-1-1-1-1-8-8-8-8-8-8-8-8-8-8-8-8-8-8-8-8------|
A||----5-5-5-5-5-5-5-5-1-1-1-1-1-1-1-1-8-8-8-8-8-8-8-8-8-8-8-8-8-8-8-8------|
D||----5-5-5-5-5-5-5-5-1-1-1-1-1-1-1-1-8-8-8-8-8-8-8-8-8-8-8-8-8-8-8-8------|

E||-------------------------------------------------------------------------|
B||-------------------------------------------------------------------------|
G||-------------------------------------------------------------------------|
D||----5-5-5-5-5-5-5-5-1-1-1-1-1-1-1-1-8-8-8-8-8-8-8-8----------------------|
A||----5-5-5-5-5-5-5-5-1-1-1-1-1-1-1-1-8-8-8-8-8-8-8-8---1-1-0-0------------|
D||----5-5-5-5-5-5-5-5-1-1-1-1-1-1-1-1-8-8-8-8-8-8-8-8-----------3-3-0-0----|

E||----------------------------------------|
B||----------------------------------------|
G||----------------------------------------|
D||-----1-1-1-1-1-1-1-1-1-1-1-1-1-1-1-1----|
A||-----1-1-1-1-1-1-1-1-1-1-1-1-1-1-1-1----|
D||-----1-1-1-1-1-1-1-1-1-1-1-1-1-1-1-1----|

Solo:

Guitar 1:

E||-------------------------------------------------------|
B||-------------------------------------------------------|
G||-------------------------------------------------------|
D||-------------------------------------------------------|
A||---5-----3--5-------5-----3--5-------------------------|
D||------5--------5~------5--------5~---7-7-7-7-----------|

E||-------------------------------------------------------|
B||-------------------------------------------------------|
G||-------------------------------------------------------|
D||---0--------0-------0--------0-------------------------| X 3
A||------1--3-----1~------1--3-----1~---0-0-0-0-----------|
D||-------------------------------------------------------|

Then:

E||---------------------------------------------------|
B||---------------------------------------------------|
G||---------------------------------------------------|
D||------------------------------------0-0-0----------|
A||----------3-3-3--1-1---------3-3-3-----------------|
D||---1-1-1--------------3-3-3------------------------|

Guitar 2 plays something like the following near the end:

E||-10t-12t-15t---12t-10t--12t-15t-17t----|
B||---------------------------------------|
G||---------------------------------------|
D||---------------------------------------|
A||---------------------------------------|
D||---------------------------------------|

Chorus/Outro

E||-------------------------------------------------------------------------|
B||-------------------------------------------------------------------------|
G||-------------------------------------------------------------------------|
D||----5-5-5-5-5-5-5-5-1-1-1-1-1-1-1-1-8-8-8-8-8-8-8-8----------------------|
A||----5-5-5-5-5-5-5-5-1-1-1-1-1-1-1-1-8-8-8-8-8-8-8-8---1-1-0-0------------|
D||----5-5-5-5-5-5-5-5-1-1-1-1-1-1-1-1-8-8-8-8-8-8-8-8-----------3-3-0-0----|

E||-------------------------------------------------------------------------|
B||-------------------------------------------------------------------------|
G||-------------------------------------------------------------------------|
D||----5-5-5-5-5-5-5-5-1-1-1-1-1-1-1-1-8-8-8-8-8-8-8-8-8-8-8-8-8-8-8-8------|
A||----5-5-5-5-5-5-5-5-1-1-1-1-1-1-1-1-8-8-8-8-8-8-8-8-8-8-8-8-8-8-8-8------|
D||----5-5-5-5-5-5-5-5-1-1-1-1-1-1-1-1-8-8-8-8-8-8-8-8-8-8-8-8-8-8-8-8------|

E||-------------------------------------------------------------------------|
B||-------------------------------------------------------------------------|
G||-------------------------------------------------------------------------|
D||----5-5-5-5-5-5-5-5-1-1-1-1-1-1-1-1-8-8-8-8-8-8-8-8----------------------|
A||----5-5-5-5-5-5-5-5-1-1-1-1-1-1-1-1-8-8-8-8-8-8-8-8---1-1-0-0------------|
D||----5-5-5-5-5-5-5-5-1-1-1-1-1-1-1-1-8-8-8-8-8-8-8-8-----------3-3-0-0----|

E||----------------------------------------|
B||----------------------------------------|
G||----------------------------------------|
D||-----1-1-1-1-1-1-1-1-1-1-1-1-1-1-1-1----| X 2
A||-----1-1-1-1-1-1-1-1-1-1-1-1-1-1-1-1----|
D||-----1-1-1-1-1-1-1-1-1-1-1-1-1-1-1-1----|


Then:

E||----------------------------------------|
B||----------------------------------------|
G||----------------------------------------|
D||-----1-1-1-1-1-1-1-1-1-1-1-1-1-1-1-1----|
A||-----1-1-1-1-1-1-1-1-1-1-1-1-1-1-1-1----|
D||-----1-1-1-1-1-1-1-1-1-1-1-1-1-1-1-1----|

End

E||---------------------------------------------------|
B||---------------------------------------------------|
G||---------------------------------------------------|
D||-------------------------------------0-0------5----|
A||-----------3-3-3--1-1---------3-3-3-----------5----|
D||----1-1-1--------------3-3-3------------------5----|
comments
We did not receive enough feedback on this tab! Please rate:
print report bad tab
1 2 3 4 5
4 comments total. Showing first comments.
0 reply
heliocentric214 12 wrote on February 6 2009, 01:17 am

wow all u did was copy the other guy's tab with a few minor corrections
lame.

0 reply
xdays_ive_diedx 871 wrote on February 6 2009, 01:23 pm

Actually, this was ALL typed by myself. Yes, I used the other for "reference" for what was correct. If something is correct and multiple people type it up, it will look the same. My chorus is SIGNIFICANTLY different from the other. The last tab has notes being played wrong, or way too many times, etc. Sue me for referencing correct parts. You are the lame one, coming on UG to throw accusations of plagiarism out at me.

0 reply
heliocentric214 12 wrote on February 7 2009, 12:33 am

okay all u did was one add a f power chord to the chorus
and u added a little of bends on the solo and that was pretty much it
i'm pretty sure ur the lame one and it is obvious that it's plagiarised just ask anyone

I want to post or [tab]
guest
You may want to rate the tab now too:
select rating
Please do not post tabs as comments. Select "correction" instead!