Oops, an error
Loading. Please wait.

Disappear Tab

version 3
version 3

Whole song

Interactive

349 views 1 this week
no commentswrite comment
1 2 3 4 5
please rate
add to favorites
launch autoscroll
font size
0
reset
how to read this tab
guitar tuner
Autoscroll
slow
fast
+/-
esc
set tempo
stop
Help us to improve Ultimate-Guitar.com Take our survey!
×
Author
Difficulty
Tuning
novice
D A D G B E
Song: Disappear
Band: Anberlin
Album: New Surrender

 Drop D tuning (DADGBe)

 Key 
 / = slide
 ~ = let note ring
 x = dead note
 . = palm mute
 h = hammer on

 Intro
 
 Guitar's 1&2 (0:06)
e|-------------------------------------------------|
B|-------------------------------------------------|
G|-------------------------------------------------|x2
D|----/5555-5555-8888-3333--5555-5555-8888-3333-5~-|
A|----/5555-5555-8888-3333--5555-5555-8888-3333-5~-|
D|----/5555-5555-8888-3333--5555-5555-8888-3333-5~-|
 
 Verse
 
 Guitar's 1 (0:22)
e|---------------|
B|---------------|
G|---------------|
D|---------------|
A|---------------|
D|---Pickslide---|

 Guitar's 1&2 (0:27)
e|---------------------------------------------------|
B|---------------------------------------------------|
G|---------------------------------------------------|x2
D|-/555-x-5-x-5555-x-5-x-5--888-x-8-x-8--333-x-3---3-|
A|-/555-x-5-x-5555-x-5-x-5--888-x-8-x-8--333-x-3-x-3-|
D|-/555-x-5-x-5555-x-5-x-5--888-x-8-x-8--333-x-3-x-3-|

 Prechorus (0:39)

 Guitar 1
e|-------------------------------------------------------|
B|------18~------18-----18-----18~------18~--------------|
G|-15h17----15h17--15h17--15h17----15h17---x2------------|
D|-------------------------------------------------------|
A|-------------------------------------------------------|
D|--------------------------------------------888-777-33-|

 Guitar 2
e|-------------------------------|
B|-------------------------------|
G|-------------------------------|
D|-1~-----5-----3~---------------|
A|-1~-----5-----3~-x2-111-000----|
D|-1~-----5-----3~------------33-|

 Chorus (0:50)

 Guitar 1 It goes something like this. Listen for the timing
e|------------------------------------------------------------------|
B|------------------------------------------------------------------|
G|-15-14-10-10---------------15-14-10-10---15-14-10-10--------------|
D|--x--x--x--8----------------x--x--x--8----x--x--x--8--------------|
A|-13-12--8--8---------------13-12--8--8---13-12--8--8--------------| 
D|-----------8--88-77-33-00------------8-------------8--88-77-33-00-|

e|------------------------------|
B|------------------------------|
G|------------------------------|
D|------------------------------|
A|------------------------------|
D|-111111-111111-111111-1111111-|

 Guitar 2
e|-------------------------------------------------------|
B|-------------------------------------------------------|
G|-------3---------------------3---------3---------------|
D|-5--1--3---------------5--1--3---5--1--3---------------|
A|-5--1--1--11-00--------5--1--1---5--1--1--11-00--------|
D|-5--1-----------33-00--5--1------5--1------------33-00-|

e|--------------------------|
B|--------------------------|
G|--------------------------|
D|-111111111111111111111111-|
A|-111111111111111111111111-|
D|-111111111111111111111111-|

 Intro (1:09)

 Verse 2 (1:20)

 Guitar 2
e|-------------|
B|-------------|
G|-------------|x2
D|--5---8---3--|
A|--5---8---3--|
D|--5---8---3--|
    .   .   .
 Guitar 1&2
e|-----------------------------------|
B|-----------------------------------|
G|-----------------------------------|x2
D|-555-55-5-55-5-55-5-88-8-88-8-33-3-|
A|-555-55-5-55-5-55-5-88-8-88-8-33-3-|
D|-555-55-5-55-5-55-5-88-8-88-8-33-3-|
       ..   ..   ..   ..   ..   ..

 Prechorus 2 (1:41)

 Guitar 1
e|--------------------------------------------------------|
B|------18~------18-----18-----18~------18~---------------|
G|-15h17----15h17--15h17--15h17----15h17------------------|
D|--------------------------------------------------------|
A|-----------------------------------------------------88-|
D|------------------------------------------888-101010----|

 Guitar 2
e|-----------------------------|
B|-----------------------------|
G|-----------------------------|
D|-1~-----5-----3~----------33-|
A|-1~-----5-----3~--111-333----|
D|-1~-----5-----3~-------------|
 
 Chorus (1:48)

 Guitar 1 
e|------------------------------------------------------------------|
B|------------------------------------------------------------------|
G|-15-14-10-10---------------15-14-10-10---15-14-10-10--------------|
D|--x--x--x--8----------------x--x--x--8----x--x--x--8--------------|
A|-13-12--8--8---------------13-12--8--8---13-12--8--8--------------| 
D|-----------8--88-77-33-00------------8-------------8--88-77-33-00-|

e|---------------------------|
B|---------------------------|
G|--------------101010101010-|
D|---------------x-x-x-x-x-x-|
A|---------------8-8-8-8-8-8-|
D|-111111-111111-------------|

 Guitar 2
e|-------------------------------------------------------|
B|-------------------------------------------------------|
G|-------3---------------------3---------3---------------|
D|-5--1--3---------------5--1--3---5--1--3---------------|
A|-5--1--1--11-00--------5--1--1---5--1--1--11-00--------|
D|-5--1-----------33-00--5--1------5--1------------33-00-|

e|--------------------------|
B|--------------------------|
G|-------------101010101010-|
D|-11111111111--x-x-x-x-x-x-|
A|-11111111111--8-8-8-8-8-8-|
D|-11111111111--------------|
  
 Solo (2:08)

 Guitar 2 
e|------------------------------------------------------------------|
B|------------------------------------------------------------------|
G|------------------------------------------------------------------|x3
D|------------------------------------------------------------------|
A|---5---3-5----5---3-5---------------------------------------------|
D|-----5-----5----5-----5--7777----12-8-10-12-8--12-8-10-12-8--7777-|

e|-----------------------|
B|-----------------------|
G|-----------------------|
D|--------------------00-|
A|-----333-11-----333----|
D|-111--------333--------|

 Guitar 1
e|------------------------------------------------------------------|
B|------------------------------------------------------------------|
G|------------------------------------------------------------------|x2
D|------------------------------------------------------------------|
A|---5---3-5----5---3-5---------------------------------------------|
D|-----5-----5----5-----5--7777----12-8-10-12-8--12-8-10-12-8--7777-|

 then
e|-10-12-15--12-10--12-15-17-|
B|---------------------------|
G|---------------------------|
D|---------------------------|
A|---------------------------|
D|---------------------------|

 Chorus x2 (2:44)

Guitar 1
e|------------------------------------------------------------------|
B|------------------------------------------------------------------|
G|-15-14-10-10---------------15-14-10-10---15-14-10-10--------------|
D|--x--x--x--8----------------x--x--x--8----x--x--x--8--------------|
A|-13-12--8--8---------------13-12--8--8---13-12--8--8--------------| 
D|-----------8--88-77-33-00------------8-------------8--88-77-33-00-|
                                                                      
e|------------------------------|                                     
B|------------------------------|                                     
G|------------------------------|
D|------------------------------|
A|------------------------------|
D|-111111-111111-111111-1111111-|

 Guitar 2
e|-------------------------------------------------------|
B|-------------------------------------------------------|
G|-------3---------------------3---------3---------------|
D|-5--1--3---------------5--1--3---5--1--3---------------| 
A|-5--1--1--11-00--------5--1--1---5--1--1--11-00--------| 
D|-5--1-----------33-00--5--1------5--1------------33-00-| 
                                                           
e|--------------------------|                              
B|--------------------------|                              
G|--------------------------|
D|-111111111111111111111111-|
A|-111111111111111111111111-|
D|-111111111111111111111111-|

 End (3:20)
e|---------------------------|
B|---------------------------|
G|---------------------------|
D|--------------------00--5~-|
A|-----333-11-----333-----5~-|
E|-111--------333---------5~-|
Suggest correction
Give kudos to tab author, rate the tab!
1 2 3 4 5
comments
print report bad tab
guest
You may want to rate the tab now too:
select rating
Wanna post a correction for this tab? Suggest correction