Oops, an error
Loading. Please wait.

Dismantle Repair bass

version 1
version 1

Whole song

Interactive

2,881 views 3 this week
2 commentsread comments
1 2 3 4 5
x 4
add to favorites
×
Save as Personal and add changes to this tab that will be seen only by you. Learn more ›
×
You can save this tab as Personal to edit and correct it or add notes. All changes will be seen only by you. Learn more »
launch autoscroll
font size
0
reset
guitar tuner
edit
Autoscroll
slow
fast
+/-
esc
set tempo
stop
Difficulty
Band: Anberlin
Song: Dismantle Repair
Tuning: CGCF
Tabber: Abram[Jack]

Just The Guitar at the Beginning!

Pre-Chorus
F|------------------------------------------|
C|------------------------------------------|
G|------------------------------------------|
C|-3-33-3-3--0-00-0-0--3-33-3-3--0-00-0-0-3-|

Verse
F|-----------------------|
C|-----------------------|
G|-------3hp5------------|
C|-3-7-3------7hp5-7-3-7-| (Something Like That)

Pre-Chorus
F|----------------------------------------|
C|----------------------------------------|
G|----------------------------------------|
C|-3-33-3-3--0-00-0-0--3-33-3-3--0-00-0-0-|

Chorus
F|-------------|
C|-------------|
G|-------------|
C|-8-10-000--3-| (2X)

Verse 2
F|----------------|
C|----------------|
G|----------------|
C|-3-7-3-7hp5-3-7-| (Something Like That)

Chorus
F|-------------|
C|-------------|
G|-------------|
C|-8-10-000--3-| (2X)

Bridge
F|----------------|
C|----------------|
G|----------10-12-|
C|-8-10--12-------| (4X)


Pre-Chorus
F|------------------------------------------|
C|------------------------------------------|
G|------------------------------------------|
C|-3-33-3-3--0-00-0-0--3-33-3-3--0-00-0-0-3-|

Pause

Chorus
F|-------------|
C|-------------|
G|-------------|
C|-8-10-000--3-|
Then
F|-----------------|
C|-----------------|
G|-----------------|
C|-8-10-00-Pause-3-|

Then Chorus 'til the end...
End On C|-8-

            
            
Suggest correction
Creating personal tab
Creating personal tab
You can edit any tab online and save it as your Personal.

You can edit, replace or remove any tab part or add personal notes – all changes will be seen only by you.

Personal tabs can be accessed anytime from any device, even offline.
Learn more »
comments
print report bad tab
2 comments total.
0 reply
CavinSedera 94 Sep 17, 2010 04:36 PM

umm mabye you could tab this for like a five str. cuz you can play from the c on the b str. just saying it would be easyer for some ppl

+1 reply
slash.r0cks 4,820 May 06, 2015 05:06 PM

He tabbed it how they play it. Isn't that the point of this site?

guest
Wanna post a correction for this tab? Suggest correction