Oops, an error
Loading. Please wait.

Dismantle Repair tab

version 1
version 1

Whole song

Interactive

19,282 views 6 this week
11 commentsread comments
1 2 3 4 5
x 8
add to favorites
×
Save as Personal and add changes to this tab that will be seen only by you. Learn more ›
×
You can save this tab as Personal to edit and correct it or add notes. All changes will be seen only by you. Learn more »
launch autoscroll
font size
0
reset
how to read this tab
guitar tuner
edit
Autoscroll
slow
fast
+/-
esc
set tempo
stop
Author
UPDATED AS OF 1/5/09 - Sorry it took so long. I made it clearer and fixed mistakes.

Tuning: C

Intro/Verse -

| -----------------------------------------------------------|
| -----------------------------------------------------------|
| -------0----0----5-----5-----------------------------------|
| ------5----5-5--5-5---5-5----------------------------------|
| -----3----3----7-----7-------------------------------------|
| ----3----3----7-----7--------------------------------------|

The latter part of the intro is hard to hear. At times it sounds like they're
playing this instead...

|--------------------------------------------------------|
|--------------------------------------------------------|
|-----0--------------------------------------------------|
|---10-10------------------------------------------------|
|--7-----------------------------------------------------|
|-7------------------------------------------------------|

... So give me some feedback.

Pre Chorus -

|---------------------------------------------------------|
|---------------------------------------------------------|
|---------------------------------------------------------|
|-------3-3-3-5-5-5-5-3-3---------0-0-0-5-5-5-5-0-0-------|
|-------3-3-3---------3-3-5-5-5-5-0-0-0---------0-0-5-5---|
|-\12---3-3-3---------3-3---------0-0-0---------0-0-----0-|

|--------------------------------------------------------|
|--------------------------------------------------------|
|--------------------------------------------------------|
|-3-3-3-5-5-5-5-3-3-----------0-0-0-5-5-5-5--5--5-0-5~---|
|-3-3-3---------3-3-5-5-5-5-5-0-0-0---------3--3--0-3~---|
|-3-3-3---------3-3-----------0-0-0--------0--0---0-3~---|

Intro/Verse -

| -----------------------------------------------------------|
| -----------------------------------------------------------|
| -------0----0----5-----5-----------------------------------|
| ------5----5-5--5-5---5-5----------------------------------|
| -----3----3----7-----7-------------------------------------|
| ----3----3----7-----7--------------------------------------|

Pre Chorus -

|---------------------------------------------------------|
|---------------------------------------------------------|
|---------------------------------------------------------|
|-------3-3-3-5-5-5-5-3-3---------0-0-0-5-5-5-5-0-0-------|
|-------3-3-3---------3-3-5-5-5-5-0-0-0---------0-0-5-5---|
|-\12---3-3-3---------3-3---------0-0-0---------0-0-----0-|

|---------------------------------------------------------|
|---------------------------------------------------------|
|---------------------------------------------------------|
|-0-2-3-3-3-5-5-5-5-3-3-----------0-0-0-5-5-5-5-0-0-------|
|-0-2-3-3-3---------3-3-5-5-5-5-5-0-0-0---------0-0-5-5---|
|-0-2-3-3-3---------3-3-----------0-0-0---------0-0-----0-|

Chorus -

Guitar 1:

|---------------------------------------------------------------|
|---------------------------------------------------------------|
|---------------------------------------------------------------|
|-10-10-10-10-10-10-10-10-10-10-10-10-0-0-0-0-0-0-3-3-3-3-3-3---| x2
|-8--8--8--8--8--8--10-10-10-10-10-10-0-0-0-0-0-0-3-3-3-3-3-3---|
|-8--8--8--8--8--8--10-10-10-10-10-10-0-0-0-0-0-0-3-3-3-3-3-3---|

Guitar 2:

|----------------------------------------------------------|
|------13------13-------13---10----------------------------|
|-10h12---10h12---10h12----12--12--------------------------|
|----------------------------------------------------------| x2
|----------------------------------------------------------|
|----------------------------------------------------------|

Intro/Verse -

| ------------------------------------------------------------|
| ------------------------------------------------------------|
| -------0----0----5-----5------------------------------------|
| ------5----5-5--5-5---5-5-----------------------------------|
| -----3----3----7-----7--------------------------------------|
| ----3----3----7-----7---------------------------------------|


Guitar Two:

|---------------------------------------------------------|
|---------------------------------------------------------|
|---------------------------------------------------------|
|-5~--10~--5~--10~----------------------------------------|
|-3~--7~---3~--7~-----------------------------------------|
|-3~--7~---3~--7~-----------------------------------------|

Guitar 1: Keep playing this

 --------------------------------------------------------------|
| -------------------------------------------------------------|
| -------0----0----5-----5-------------------------------------|
| ------5----5-5--5-5---5-5------------------------------------|
| -----3----3----7-----7---------------------------------------|
| ----3----3----7-----7----------------------------------------|

Guitar 2: This comes in at 1:56 - palm mute it

|--------------------------------------------------------|
|--------------------------------------------------------|
|--------------------------------------------------------|
|-3-3-3-3-3-3-3-3-7-7-7-7-7-7-7-7------------------------| x2
|-3-3-3-3-3-3-3-3-7-7-7-7-7-7-7-7------------------------|
|-3-3-3-3-3-3-3-3-7-7-7-7-7-7-7-7------------------------|
pm............................................................

Chorus -

Guitar 1:

|---------------------------------------------------------------|
|---------------------------------------------------------------|
|---------------------------------------------------------------|
|-10-10-10-10-10-10-10-10-10-10-10-10-0-0-0-0-0-0-3-3-3-3-3-3---| x2
|-8--8--8--8--8--8--10-10-10-10-10-10-0-0-0-0-0-0-3-3-3-3-3-3---|
|-8--8--8--8--8--8--10-10-10-10-10-10-0-0-0-0-0-0-3-3-3-3-3-3---|

Guitar 2:

|----------------------------------------------------------|
|------13------13-------13---10----------------------------|
|-10h12---10h12---10h12----12--12--------------------------|
|----------------------------------------------------------| x2
|----------------------------------------------------------|
|----------------------------------------------------------|

Interlude -

Guitar 1:

|--------------------------------------------------------|
|--------------------------------------------------------|
|-3-3-3-3-3-3-5-5-5-5-7-7-7-7----------------------------| x4
|-3-3-3-3-3-3-5-5-5-5-7-7-7-7---3-2-0--------------------|
|-1-1-1-1-1-1-3-3-3-3-5-5-5-5-0------3p0-----------------|
|--------------------------------------------------------|

Guitar 2:

|----1--1--1--1--1--3--3--5--5--5----------------|
|--1---1--1--1--1--3--3--6--6--6-----------------|
|-3---3--3--3--3--5--5--5--5--5------------------| x4
|------------------------------------------------|
|------------------------------------------------|
|------------------------------------------------|

Pre Chorus -

|---------------------------------------------------------|
|---------------------------------------------------------|
|---------------------------------------------------------|
|-------3-3-3-5-5-5-5-3-3---------0-0-0-5-5-5-5-0-0-------|
|-------3-3-3---------3-3-5-5-5-5-0-0-0---------0-0-5-5---|
|-\12---3-3-3---------3-3---------0-0-0---------0-0-----0-|

|--------------------------------------------------------|
|--------------------------------------------------------|
|--------------------------------------------------------|
|-3-3-3-5-5-5-5-3-3-----------0-0-0-5-5-5-5-0-0-------5~-|
|-3-3-3---------3-3-5-5-5-5-5-0-0-0---------0-0-5-5---3~-|
|-3-3-3---------3-3-----------0-0-0---------0-0-----0-3~-|

Chorus -

Guitar 1:

|---------------------------------------------------------------------------|
|---------------------------------------------------------------------------|
|---------------------------------------------------------------------------|
|-10-10-10-10-10-10-10-10-10-10-10-10-0-0-0-0-0-0-3-3-3-3-3-3--3-2-0--------|
|-8--8--8--8--8--8--10-10-10-10-10-10-0-0-0-0-0-0-3-3-3-3-3-3-3b----3p0-----|
|-8--8--8--8--8--8--10-10-10-10-10-10-0-0-0-0-0-0-3-3-3-3-3-3---------------|

Guitar 2:

|----------------------------------------------------------|
|------13------13-------13---10----------------------------|
|-10h12---10h12---10h12----12--12--------------------------|
|----------------------------------------------------------|
|----------------------------------------------------------|
|----------------------------------------------------------|

Guitar 1:

|---------------------------------------------------------------------------|
|---------------------------------------------------------------------------|
|---------------------------------------------------------------------------|
|-10-10-10-10-10-10-10-10-10-10-10-10-0-0-0-0-0-0-x-3-3-3-3-3-3--3-2-0------|
|-8--8--8--8--8--8--10-10-10-10-10-10-0-0-0-0-0-0-x-3-3-3-3-3-3-3b----3p0---|
|-8--8--8--8--8--8--10-10-10-10-10-10-0-0-0-0-0-0-x-3-3-3-3-3-3-------------|

Guitar 2:

|----------------------------------------------------------|
|------13------13-------13---10----------------------------|
|-10h12---10h12---10h12----12--12--------------------------|
|----------------------------------------------------------|
|----------------------------------------------------------|
|----------------------------------------------------------|

Guitar 1:

|---------------------------------------------------------------------------|
|---------------------------------------------------------------------------|
|---------------------------------------------------------------------------|
|-10-10-10-10-10-10-10-10-10-10-10-10-0-0-0-0-0-0-3-3-3-3-3-3--3-2-0--------|
|-8--8--8--8--8--8--10-10-10-10-10-10-0-0-0-0-0-0-3-3-3-3-3-3-3b----3p0-----|
|-8--8--8--8--8--8--10-10-10-10-10-10-0-0-0-0-0-0-3-3-3-3-3-3---------------|

Guitar 2:

|----------------------------------------------------------|
|------13------13-------13---10----------------------------|
|-10h12---10h12---10h12----12--12--------------------------|
|----------------------------------------------------------|
|----------------------------------------------------------|
|----------------------------------------------------------|

Guitar 1:

|-----------------------------------------------------------------|
|-----------------------------------------------------------------|
|-----------------------------------------------------------------|
|-10-10-10-10-10-10-10-10-10-10-10-10-0-0-0-0-0-0-3-3-3-3-3-3-10~-|
|-8--8--8--8--8--8--10-10-10-10-10-10-0-0-0-0-0-0-3-3-3-3-3-3-8~--|
|-8--8--8--8--8--8--10-10-10-10-10-10-0-0-0-0-0-0-3-3-3-3-3-3-8~--|

Guitar 2:

|----------------------------------------------------------|
|------13------13-------13---10----------------------------|
|-10h12---10h12---10h12----12--12--------------------------|
|----------------------------------------------------------|
|----------------------------------------------------------|
|----------------------------------------------------------|

Leave comments, corrections, and rate please.
Suggest correction
Creating personal tab
Creating personal tab
You can edit any tab online and save it as your Personal.

You can edit, replace or remove any tab part or add personal notes – all changes will be seen only by you.

Personal tabs can be accessed anytime from any device, even offline.
Learn more »
comments
print report bad tab
11 comments total. Showing first comments.
-2 reply
singscreams 20 Feb 19, 2007 03:19 AM

Are you sure that's the tuning? I've never seen that tuning before...

0 reply
singscreams 20 Feb 19, 2007 03:27 AM

ok, I guess so...dang...I need a second guitar, just to put in tune for these songs. So my teacher doesn't get mad at me for messing with my tuning a lot. Anyways, could you do There is No Mathematics or Reclusion? or both?

0 reply
lunchbocks 10 Mar 03, 2007 10:55 AM

Incomplete and unclear tabs, i can only hope that they are going to be updated soon

guest
You may want to rate the tab now too:
select rating
Wanna post a correction for this tab? Suggest correction