Oops, an error
Loading. Please wait.

Down tab

version 4
version 4

Whole song

Interactive

91 views 1 this week
no commentswrite comment
1 2 3 4 5
3 more votes to show rating
add to favorites
×
Save as Personal and add changes to this tab that will be seen only by you. Learn more ›
×
You can save this tab as Personal to edit and correct it or add notes. All changes will be seen only by you. Learn more »
launch autoscroll
font size
0
reset
how to read this tab
guitar tuner
edit
Autoscroll
slow
fast
+/-
esc
set tempo
stop
Author
Difficulty
-------------------------------------------------------------------------------
                             Down - Anberlin
-------------------------------------------------------------------------------
Tabbed by:
E-mail:Mcjigblits@gmail.com

Tuning:EADGBE

This is what the lead guitar plays throughout the song.Comments and rates will be
greatly appreciated!


e|---------------------------------------------------------|
B|-----------8-7-7-----------------------------------------|
G|-------------------9-9-7b--------------------------------|
D|----7h9------------------------7b---5b-----7h9---7h9b----|
A|---------------------------------------------------------|
E|---------------------------------------------------------|

e|---------------------------------------------------------------------------|
B|-------------8-7-7-------------10b--10/12-10-----8---7---------------------|
G|-----------------------9-9-7b---------------------------9b-----------------| x2
D|-----7h9-------------------------------------------------------------------|
A|---------------------------------------------------------------------------|
E|---------------------------------------------------------------------------|

  In the end of the verse he lets go of the b string and puts it back. it's kind of hard to
  explain so watch the videos i linked at the bottom to see what I'm talking about
  Verse:

e|-----3-------3------3-----3---|---3-----3-----3---------------------|
B|-----3-------3------3-----3---|---3-----3-----3---------------------|
G|-----0-------2------0-----0---|---0-----2-----0---------------------| x2
D|-----2-------0------2-----0---|---2-----0-----2---------------------|
A|-----2-------2------3-----2---|---2-----2-----3---------------------|
E|-----0-------0------0-----3---|---0-----0-----0---------------------|

At the 4th one |he slides his little finger to the 13th fret
               v
Chorus:
e|-----10-------10---|            |----------------10-------------------------|
B|-----10-------12---|x6          |------------10-----10---10-----------------|
G|-----12-------12---|            |------11-12----------12----12--------------|x4
D|-------------------|            |-------------------------------------------|
A|-------------------|            |-------------------------------------------|
E|-------------------|            |-------------------------------------------|

Verse:

e|-----3-------3------3-----3---|---3-----3-----3-----------------------------------|
B|-----3-------3------3-----3---|---3-----3-----3-----------------------------------|
G|-----0-------2------0-----0---|---0-----2-----0-----------------------------------| x2
D|-----2-------0------2-----0---|---2-----0-----2-----------------------------------|
A|-----2-------2------3-----2---|---2-----2-----3-----------------------------------|
E|-----0-------0------0-----3---|---0-----0-----0-----------------------------------|

 Chorus:
e|-----10-------10---|            |----------------10-------------------------|
B|-----10-------12---|x6          |------------10-----10---10-----------------|
G|-----12-------12---|            |------11-12----------12----12--------------|x4
D|-------------------|            |-------------------------------------------|
A|-------------------|            |-------------------------------------------|
E|-------------------|            |-------------------------------------------|

                  when he does this he bends and immediately picks it again |
                                                                                    |
  Solo:                                                                     v
e|--------------------------------------------------------------------------------------------|
B|--------------------------------------------------------------------------------------------|
G|-----------12--11--9b---------------------------------12--11--9b---12-14-14b-14--12-11------|
D|----9h10-9---------------7h9----4--5b----------9h10-9---------------------------------------|
A|-----------------------------------------5/7------------------------------------------------|
E|--------------------------------------------------------------------------------------------|

e|----------------------------------------------------------------------------------------------|
B|----------------------------------------------------------------------------------------------|
G|-7-------7-----------------7------------------7------7--------------7h9-9/11-11/12-12/14--14b-|
D|----9b------9b---7h9----------9---7--5-4h5-------9b-------9b---7h9----------------------------|
A|----------------------------------------------------------------------------------------------|
E|----------------------------------------------------------------------------------------------|

 Chorus:
e|-----10-------10---|            |----------------10-------------------------|
B|-----10-------12---|x6          |------------10-----10---10-----------------| Play this
G|-----12-------12---|            |------11-12----------12----12--------------| Until
the ending
D|-------------------|            |-------------------------------------------|
A|-------------------|            |-------------------------------------------|
E|-------------------|            |-------------------------------------------|

    This should be right. If you think it's not please comment your correction.
    I based this tab off of this video. https://www.youtube.com/watch?v=OnuW7SVBdUc
    And this video https://www.youtube.com/watch?v=PWK7Ww9bIgQ

************************************

| /   slide up
| \   slide down
| h   hammer-on
| p   pull-off
| ~   vibrato
| +   harmonic
| x   Mute note
| b   Bend
| pb  Pre-bend
| br  Bend release
| pbr Pre-bend release
| brb Bend release bend

************************************
Suggest correction
Creating personal tab
Creating personal tab
You can edit any tab online and save it as your Personal.

You can edit, replace or remove any tab part or add personal notes – all changes will be seen only by you.

Personal tabs can be accessed anytime from any device, even offline.
Learn more »
Give kudos to tab author, rate the tab!
1 2 3 4 5
comments
print report bad tab
guest
You may want to rate the tab now too:
select rating
Wanna post a correction for this tab? Suggest correction