Oops, an error
Loading. Please wait.

Feel Good Drag Acoustic Tab

version 2
version 2

Whole song

Interactive

4,285 views 1 this week
no commentswrite comment
1 2 3 4 5
accurate
x 3
add to favorites
launch autoscroll
font size
0
reset
how to read this tab
guitar tuner
Tab Pro tools
  • play this tab
  • loop segment
  • change instrument
  • show fretboard
  • metronome
Autoscroll
slow
fast
+/-
esc
set tempo
stop
Contributor
Difficulty
novice
-------------------------------------------------------------------------------
                  Feel Good Drag (Acoustic) - Anberlin
-------------------------------------------------------------------------------
Tabbed by:Caleb99


Tuning: Guitar 1-Standard(Or Drop D it doesnt matter)  Guitar 2-Drop D

CAPO 1st FRET ON GUITAR 2!!!! <---ALL NOTES WILL BE RELATIVE TO CAPO ON GUITAR 2


This is the tab for the acoustic version of this song as heard at this page
http://www.youtube.com/watch?v=0PouGKpA4W0
Some parts are wrong I will point them out in the tab, but overall the tab is
almost perfect. If you can figure out the parts I cant I would love to know them.
I hope it helps, Please Rate and Comment.

NOTES: For the rythym just watch the video, Im just showing the chords not how many 
times they are played. Its fairly easy to figure out.


INTRO

Guitar 1
e|------4----------8------3-------------|
B|--4h6---4h6--4h6---4h6----------------|
G|--------------------------------------|  2x
D|--------------------------------------|
A|--------------------------------------|
E|--------------------------------------|


          This is one part I couldnt figure out, Guitar 2 seems to be fingerpicking
          some chords but I couldnt tell which any help is greatly appreciated.
          If you just play the same notes as Guitar 1(remember your capo though)
          it should harmonize alright.



VERSE

Guitar 1
e|---------------------------------------------------------------------------|
B|---9----8----9----8-------9------------------------------------------------|
G|---10---x----10---x-------10-----------------------------------------------|
D|---10---8----10---8--x2---10-----------------------------------------------|
A|---8----6----8----6-------8------------------------------------------------|
E|---------------------------------------------------------------------------|

Guitar 2
e|---0--0--0---0-------------------------------------------------------------|
B|---8--7--5---7------5------------------------------------------------------|
G|---9--x--4---x------0------------------------------------------------------|
D|---9--7--5---7-x2---x------------------------------------------------------|
A|---7--5--3---5------5------------------------------------------------------|
E|---------------------------------------------------------------------------|


CHORUS

Guitar 1
e|---------------------------------------------------------------------------|
B|---6---6---6---8---8---8---9---9---9---11---11---11------------------------|
G|-----5---5---5---8---8---8---8---8---8----8----8---------------------------|
D|---------------------------------------------------------------------------|
A|---------------------------------------------------------------------------|
E|---------------------------------------------------------------------------|

Guitar 2
e|---0--2--0--2--------------------------------------------------------------|
B|---0--3--5--3--------------------------------------------------------------|
G|---x--2--4--2--------------------------------------------------------------|
D|---2--0--5--0--------------------------------------------------------------|
A|---2-----3-----------------------------------------------------------------|
E|---2-----------------------------------------------------------------------|


VERSE 2

I could not figure out verse 2. He does a picking thing and i dont think its the
same chords but if you just play the same chords as verse 1
it will work. Again any help is appreciated.


CHORUS (SAME AS BEFORE)


VERSE 3 OR BRIDGE OR WHATEVER(SAME AS VERSE 1)


SOLO


Guitar 1
e|---------------------------------------------------------------------------|
B|---------------------------------------------------------------------------|
G|---8b-8-6-5-6-5h6p5---5----------------------------5---5-6-8---------------|
D|--------------------8---8-6-5------------5-6-5-6-8---8---------------------|
A|------------------------------6/8--8-6-8-----------------------------------|
E|---------------------------------------------------------------------------|

e|---------------------------------------------------------------------------|
B|---------------------------------------------------------------------------|
G|--6h8p8-5h6p5-3h5p5-1h3p1-3b-3p1-----------------------------------------8-|
D|----------------------------------6h8p6---6h8p6-------6---6/8-10-8-10-11---|
A|----------------------------------------8-------8-6-8---8------------------|
E|---------------------------------------------------------------------------|

e|-------------13----------------13-------------13---------------------------|
B|----------------------13----------------13----------13---------------------|
G|--8/10-10-10----10-10----10-10----10-10----10----10-----15/17-17-15h17-----|
D|---------------------------------------------------------------------------|
A|---------------------------------------------------------------------------|
E|---------------------------------------------------------------------------|

e|---------------------------------------------------------------------------|
B|---------------------------------------------------------------------------|
G|--17-17-17-17\15-15-15-15\13-13-13-13\12-12-12-12\10-10-10-10--------------|
D|---------------------------------------------------------------------------|
A|---------------------------------------------------------------------------|
E|---------------------------------------------------------------------------|


Guitar 2(I cant stress enough how watching the video really helps the rythym here)
e|---0--0--0--2-----0--0--0--0--0---0--2---0--0-------------------------------|
B|---8--7--5--3-----0--0--0--0--0---5--3---0--8-------------------------------|
G|---9--x--4--2-----x-----x-----x---4--2---x--9-------------------------------|
D|---9--7--5--0-----2--0--2--0--2---5--0---2--9-------------------------------|
A|---7--5--3--------2--0--2--0--2---3------2--7-------------------------------|
E|------------------2--0--2--0--2----------2----------------------------------|


CHORUS(Same but single strum on first two chords for rythym)

      TIP! Lead can do this instead to make it easier coming out of the solo(same notes)

e|---------------------------------------------------------------------------|
B|---------------------------------------------------------------------------|
G|---10----10----10-----12----12----12----13----13----13----15----15----15---|
D|------10----10----10-----13----13----13----13----13----13----13----13----13|
A|---------------------------------------------------------------------------|
E|---------------------------------------------------------------------------|



OUTRO

Guitar 1
e|------4----------8------3-]-----------|
B|--4h6---4h6--4h6---4h6----]2x---4/6---|
G|--------------------------------------|
D|--------------------------------------|
A|--------------------------------------|
E|--------------------------------------|



                RATE AND COMMENT!!


************************************

| /   slide up
| \   slide down
| h   hammer-on
| p   pull-off
| ~   vibrato
| +   harmonic
| x   Mute note
| b   Bend
| pb  Pre-bend
| br  Bend release
| pbr Pre-bend release
| brb Bend release bend

************************************
comments
We did not receive enough feedback on this tab! Please rate:
print report bad tab
1 2 3 4 5
I want to post or [tab]
guest
You may want to rate the tab now too:
select rating
Please do not post tabs as comments. Select "correction" instead!