Oops, an error
Loading. Please wait.
We have an official Feel Good Drag tab made by UG professional guitarists. Check out the tab »
×
6,917 views 1 this week
1 commentread comment
1 2 3 4 5
x 4
add to favorites
×
Save as Personal and add changes to this tab that will be seen only by you. Learn more ›
×
You can save this tab as Personal to edit and correct it or add notes. All changes will be seen only by you. Learn more »
launch autoscroll
font size
0
reset
how to read this tab
guitar tuner
edit
Autoscroll
slow
fast
+/-
esc
set tempo
stop
Lead Guitar

Intro (0:01)
e|------------------------------------------------------|
b|--------------13----------------13----------13--------|
g|-----15----15----15----15----15----15----15----13-----|
d|--13----13----------13----13----------13--------------|
a|------------------------------------------------------|
D|------------------------------------------------------| X2

(0:05)
e|----------4--------------8------|
b|--4-6-6-6--6-6-6-4-6-6-6--4-4-4-|
g|--------------------------------|
d|--------------------------------|
a|--------------------------------|
D|--------------------------------| X3

(0:12)
e|---------4-------------------|
b|-4-6-6-6---6-6-6-4-6-6-6-----|
g|-----------------------------|
d|-----------------------------|
a|-----------------------------|
D|-----------------------------|

(0:14)
e|------|-----------------|
b|------|-----------------|
g|------|-----------------|
d|-xx-x-|--3--3--3--3-xx--|
a|-xx-x-|--3--3--3--3-xx--|
D|-xx-x-|--3--3--3--3-xx--|


Verse 1 (0:18)
e|--------------------------------------------------|
b|--------------------------------------------------|
g|--------8-10--------8-10--------8-10--------8-10--|
d|--10-10-------10-10-------10-10-------10-10-------|
a|--------------------------------------------------|
D|--------------------------------------------------|
    *  *  * *    *  *  * *   *  *  * *   *  *  * *

 
e|-------------------------------------------------|
b|-------------------------------------------------|
g|------8-10------8-10-----8-10-----8-10-----8-10--|
d|--8-8-------8-8------8-8------8-8------8-8-------|
a|-------------------------------------------------|
D|-------------------------------------------------|
    * * * *   * * * *  * * * *  * * * *  * * * *

e|--------------------------------------------------|
b|--------------------------------------------------|
g|------5-6------5-6------5-6------5-6--------------|
d|--6-6------6-6------6-6------6-6------------------|
a|--------------------------------------------------|
D|--------------------------------------------------|
    * * * *  * * * *  * * * *  * * * * 

e|-------------------------------------------------|
b|-------------------------------------------------|
g|------8-10------8-10-----8-10-----8-10-----8-10--|
d|--8-8-------8-8------8-8------8-8------8-8-------|
a|-------------------------------------------------|
D|-------------------------------------------------|
    * * * *   * * * *  * * * *  * * * *  * * * *
Repeat Verse 1

Pre-Chorus (0:38)
e|-------|
b|--10br-|
g|-------|
d|-------|
a|-------|
D|-------|

Chorus (0:41)
|-----------------------------------------------------------------------|
|-----------------------------------------------------------------------|
|-10----10----10----12----12----12----13----13----13----15----15----15--|
|-----10----10--10------13----13--13------13----13--13------13----13--13|
|-----------------------------------------------------------------------|
|-----------------------------------------------------------------------| X2

(1:00)
e|-----------------|
b|-----------------|
g|-----------------|
d|--3--3--3--3-xx--|
a|--3--3--3--3-xx--|
D|--3--3--3--3-xx--|

Verse 2 (1:04)
e|--------------------------------------------------|
b|--------------------------------------------------|
g|--------8-10--------8-10--------8-10--------8-10--|
d|--10-10-------10-10-------10-10-------10-10-------|
a|--------------------------------------------------|
D|--------------------------------------------------|
    *  *  * *    *  *  * *   *  *  * *   *  *  * *

e|------------------------------------------------------|
b|------------------------------------------------------|
g|--------10-12--------10-12--------10-12--------10-12--|
d|--10-10--------10-10--------10-10--------10-10--------|
a|------------------------------------------------------|
D|------------------------------------------------------|
    *  *  *  *   *  *  *  *   *  *  *  *   *  *  *  * 

e|------------------------------------------------------|
b|------------------------------------------------------|
g|--------12-13--------12-13--------12-13--------12-13--|
d|--13-13--------13-13--------13-13--------13-13--------|
a|------------------------------------------------------|
D|------------------------------------------------------|
    *  *  *  *   *  *  *  *   *  *  *  *   *  *  *  *

e|------------------------------------------------------|
b|------------------------------------------------------|
g|--------13-15--------13-15--------13-15--------13-15--|
d|--13-13--------13-13--------13-13--------13-13--------|
a|------------------------------------------------------|
D|------------------------------------------------------|
     *  *  *  *   *  *  *  *   *  *  *  *   *  *  *  *

Pre-Chorus (1:24)

Chorus (1:27) X2

(1:46)
e|---------|
b|---------|
g|---------|
d|--x-x-x--|
a|--x-x-x--|
D|--x-x-x--|

Bridge (1:47)
e|----------4---4-----------8--------|
b|--4-6-4-6---6---6-4-6-4-6---4-4-4--|
g|-----------------------------------|
d|-----------------------------------|
a|-----------------------------------|
D|-----------------------------------| X6
Hold the last 4 the final time through

Solo (2:02)
e|-----------------------|--------------------------------|
b|-/6--4-----------------|--------------------------------|
g|-----------6--5--6-----|-5--6-5---5---------------------|
d|-----------------------|--------8----8--6-5-------------|
a|-----------------------|--------------------6-/8--------|
D|-----------------------|--------------------------------|

e|---------------------------------|
b|---------------------------------|
g|-----------------5---5-6-8-------|
d|-------5-6-5-6-8---8-------------|
a|-8-6-8---------------------------|
D|---------------------------------|

e|-----------------------------------|
b|-----------------------------------|
g|--6h8p6-5h6p5----------------------|
d|--------------8h10p8-6h8p6-8-~-----|
a|-----------------------------------|
D|-----------------------------------|

e|-----------------------------------|
b|-----------------------------------|
g|-----------------------------------|
d|--6h8p6-8~-6h8p9-8~----------------|
a|-----------------------------------|
D|-----------------------------------|

e|--------------------------------------|
b|--------------------------------------|
g|-----------5----5-6--8-----8s10-10-10-|
d|-6----6-8-----8-----------------------|
a|----8---------------------------------|
D|--------------------------------------|

e|-13----------------13----------------13----------|
b|----------13----------------13-------------13----|
g|----10-10----10-10----10-10----10-10----10----10-|
d|-------------------------------------------------|
a|-------------------------------------------------|
D|-------------------------------------------------|

e|-------------------------------------------------|
b|-13----13-----(13)-13-----------16--(16)-----16--|
g|-15b17-15b17==(15)-15b17==(15)-(15)--15b17==(15)-|
a|-------------------------------------------------|
D|-------------------------------------------------|

e|----------------------------------------|
b|-16--------(16)-(16)---(16)---(16)\-----|
g|-15b17-----(15)-(15)---(15)---(15)r\----|
d|----------------------------------------|
a|----------------------------------------|
D|----------------------------------------|

Chorus (2:25) 

Outro (2:46)
e|----------------------------------------|
b|----------------------------------------|
g|----------------------------------------|
d|--3-3-3-3-3-3-3-3-----------------------|
a|--3-3-3-3-3-3-3-3-----------------------|
D|--3-3-3-3-3-3-3-3-----------------------|
Or play an aritificial harmonic on the 4th fret of the b string in place
of the last 3

(2:51)
e|----------4--------------8------|
b|--4-6-6-6--6-6-6-4-6-6-6--4-4-4-|
g|--------------------------------|
d|--------------------------------|
a|--------------------------------|
D|--------------------------------| X3

e|---------4-------------------|
b|-4-6-6-6---6-6-6-4-6-6-6-----|
g|-----------------------------|
d|-----------------------------|
a|-----------------------------|
D|-----------------------------|

(3:00)
e|--------------------|
b|--------------------|
g|--------------------|
d|--x-x--~------------|
a|--x-x--~------------|
D|--x-x--~------------|
Let the last harmonic ring






Rhythm Guitar

Intro (0:04)
e|----------|
b|----------|
g|----------|
d|--x-x--x--|
a|--x-x--x--|
D|--x-x--x--|

|--------------|--------------|--------------|---------------|
|--------------|--------------|--------------|---------------| 
|--------------|--------------|--6--6--6--6--|---------------|
|--3--3--3--3--|--1--1--1--1--|--6--6--6--6--|--1--1--1--1---|
|--3--3--3--3--|--1--1--1--1--|--4--4--4--4--|--1--1--1--1---|
|--3--3--3--3--|--1--1--1--1--|--------------|--1--1--1--1---|
Play each bar 4 times before playing the next one

(0:14)
|------|-----------------|
|------|-----------------|
|------|-----------------|
|-xx-x-|--3--3--3--3-xx--|
|-xx-x-|--3--3--3--3-xx--|
|-xx-x-|--3--3--3--3-xx--|

Pre-Chorus (0:38)
|---------------|
|---------------|
|---------------|
|-6--6--/1-3--xx|
|-6--6--/1-3--xx|
|---------------|

Chorus (0:41)
|--------------|--------------|--------------|----------------|
|--------------|--------------|--------------|----------------| 
|--------------|--------------|--6--6--6--6--|----------------|
|--3--3--3--3--|--1--1--1--1--|--6--6--6--6--|--1--1--1--1-xx-| 
|--3--3--3--3--|--1--1--1--1--|--4--4--4--4--|--1--1--1--1-xx-|
|--3--3--3--3--|--1--1--1--1--|--------------|--1--1--1--1-xx-| X2
Play each bar four times before playing the next one, this applys for 
all chorus's outro's and wherev else this progression is used

(1:00)
|-----------------|
|-----------------|
|-----------------|
|--3--3--3--3-xx--|
|--3--3--3--3-xx--|
|--3--3--3--3-xx--|

Pre-Chorus 2 (1:24)
|--------------------|
|--------------------|
|--------------------|
|--------------------|
|-6--6--/1-1-1--3----|
|-6--6--/1-1-1--3----|
           * *  *
           
Chorus (1:27) X2

Bridge (1:52)
|-----------------|---------------|----------------|-------------------|
|-----------------|---------------|----------------|-------------------|
|-----------------|---------------|---666--666-----|-------------------|
|----333--333-----|--111--111-----|---666--666-----|---111--111--xx-xx-|
|-10/333--333-----|--111--111-----|---444--444-----|---111--111--xx-xx-|
|-10/333--333-----|--111--111-----|----------------|---111--111--xx-xx-|

Solo (2:02) 
|-----------------|----------------|-------------|-------------|
|-----------------|----------------|-------------|-------------|
|-----------------|----------------|-6--6--6--6--|-8--8--8--8--| 2x
|-3--1---3-/10/1--|-3--1--3-/10/1--|-6--6--6--6--|-8--8--8--8--|
|-3--1---3-/10/1--|-3--1--3-/10/1--|-4--4--4--4--|-6--6--6--6--|
|-3--1---3-/10/1--|-3--1--3-/10/1--|-------------|-------------|

(2:23)
|----------------|
|----------------|
|----------------|
|--3--3--3--xxx--|
|--3--3--3--xxx--|
|--3--3--3--xxx--|

Final Chorus (2:30)
|------------------|------------------|--------------|----------------|
|------------------|------------------|--------------|----------------| 
|------------------|------------------|--6--6--6--6--|----------------|
|------------------|------------------|--6--6--6--6--|--1--1--1--1-xx-|
|------------------|------------------|--4--4--4--4--|--1--1--1--1-xx-|
|------------------|------------------|--------------|--1--1--1--1-xx-|

|--------------|--------------|--------------|----------------|
|--------------|--------------|--------------|----------------| 
|--------------|--------------|--6--6--6--6--|----------------|
|--3--3--3--3--|--1--1--1--1--|--6--6--6--6--|--1--1--1--1-xx-|
|--3--3--3--3--|--1--1--1--1--|--4--4--4--4--|--1--1--1--1-xx-|
|--3--3--3--3--|--1--1--1--1--|--------------|--1--1--1--1-xx-|

Outro (2:46)
Use Flange 
|-----|
|-----|
|-----|
|--3--| Strum for 2 bars
|--3--| using semi-quavers
|--3--|

(2:51)
|--------------|--------------|--------------|---------------|
|--------------|--------------|--------------|---------------| 
|--------------|--------------|--6--6--6--6--|---------------|
|--3--3--3--3--|--1--1--1--1--|--6--6--6--6--|--1--1--1--1---|
|--3--3--3--3--|--1--1--1--1--|--4--4--4--4--|--1--1--1--1---|
|--3--3--3--3--|--1--1--1--1--|--------------|--1--1--1--1---|

(3:00)
e|--------------------|
b|--------------------|
g|--------------------|
d|--x-x--~------------|
a|--x-x--~------------|
D|--x-x--~------------|
Let the last harmonic ring

DONE!!!

            
            
Suggest correction
Creating personal tab
Creating personal tab
You can edit any tab online and save it as your Personal.

You can edit, replace or remove any tab part or add personal notes – all changes will be seen only by you.

Personal tabs can be accessed anytime from any device, even offline.
Learn more »
comments
print report bad tab
1 comment total.
0 reply
*GeetarManiac* 51 Jun 04, 2010 04:15 PM

amazing tab...good job!

guest
You may want to rate the tab now too:
select rating
Wanna post a correction for this tab? Suggest correction