Oops, an error
Loading. Please wait.

Fin tab

version 2
version 2

Whole song

Interactive

3,766 views 1 this week
5 commentsread comments
1 2 3 4 5
x 3
add to favorites
×
Save as Personal and add changes to this tab that will be seen only by you. Learn more ›
×
You can save this tab as Personal to edit and correct it or add notes. All changes will be seen only by you. Learn more »
launch autoscroll
font size
0
reset
how to read this tab
guitar tuner
edit
Autoscroll
slow
fast
+/-
esc
set tempo
stop
Author
Difficulty
#----------------------------------PLEASE NOTE---------------------------------#
#This file is the author's own work and represents their interpretation of the #
#song. You may only use this file for private study, scholarship, or research. #
#------------------------------------------------------------------------------#
(*FIN)
As recorded by Anberlin
(From the 2007 Album CITIES)
Transcribed by natuMz	Words and Music by Christian, Milligan, Young, Rexroat, Strayer

C#m7x 4 6 6 0 0	E5x 7 9 9 0 0	Asus2x 0 2 2 0 0	Emaj7/Ab4 6 6 x 0 0
Bsus4x 2 4 4 0 0	F#7sus4x 9 11 11 0 0	F#7sus4open2 4 4 x 0 0	Ax 0 x 2 x x
C#x 4 x 6 x x	Ebx 6 x 8 x x	G#4 x 6 x x x	F#2 x 4 x x x
A5x 0 2 x x x	E5open0 2 x x x x	E5open(type 2)0 2 2 x x x	A5(type 2)x 0 2 2 x x
B5x 2 4 4 x x	C#5x 4 6 6 x x	G#54 6 6 x x x	

Gtr I (E A D G B E) - 'Untitled'
Gtr II (E A D G B E) - 'Untitled'
Gtr III (E A D G B E) - 'Untitled'
Gtr IV (E A D G B E) - 'Untitled'
Gtr V (E A D G B E) - 'Untitled'
Gtr VI (E A D G B E) - 'Untitled'
 Intro
  Q=87
  N.C.
 3/4
  Gtr I
                     >
  E   +E  +E    +E  +E    +E    +E    +E  +E    +E  +E    +E
|-----------------------------|-------------------------------||
|-----------------------------|-------------------------------||
|-6b8r(6)-(6)b8r(6)-(6)b8r(6)-|-(6)b8r(6)-(6)b8r(6)-(6)b8r(6)-||
|-----------------------------|-------------------------------||
|-----------------------------|-------------------------------||
|-----------------------------|-------------------------------||


    C#m7                       Asus2
    TP   TPTPTPTPTPTP TP        TP      TP
    E.   S S S S S S  E.        Q      +H
||---------------------------|-------------------------|
||o--------------------------|-------------------------|
||--6----6S8-8-8S9-9-11------|--9------(9)-------------|
||---------------------------|-------------------------|
||o--------------------------|-------------------------|
||---------------------------|-------------------------|
|
|   Gtr II
|   E.   S E   S E    E.        H.
||---------------------------|-------------------------|
||o--------------------------|-------------------------|
||--6----6s8---8s9----4------|-\2----------------------|
||---------------------------|-------------------------|
||o-4----4s6---6s7----2------|-\0----------------------|
||---------------------------|-------------------------|
|
|   Gtr III
|   E  S S S S E   S  S  S S    E  S S  S  S E S S S S
||--0--0-0-0-0-0---0--0--0-0-|--0--0-0--0--0-0-0-0-0-0-|
||o-0--0-0-0-0-0---0--0--0-0-|--0--0-0--0--0-0-0-0-0-0-|
||--6--6-6-6-6-6---6--6--6-6-|--2--2-2--2--2-2-2-2-2-2-|
||--6--6-6-6-6-6---6--6--6-6-|--2--2-2--2--2-2-2-2-2-2-|
||o-4--4-4-4-4-4---4--4--4-4-|--0--0-0--0--0-0-0-0-0-0-|
||---------------------------|-------------------------|


  Emaj7/Ab                  F#7sus4
   TP                         TP
   H.                        +H.
|-------------------------|-------------------------||
|-------------------------|------------------------o||
|-11----------------------|-(11)--------------------||
|-------------------------|-------------------------||
|-------------------------|------------------------o||
|-------------------------|-------------------------||
|
|  H            +S  S S S     H.
|-------------------------|-------------------------||
|-------------------------|------------------------o||
|-------------------------|-------------------------||
|--6------------(6)-6s7s6-|---4---------------------||
|-------------------------|------------------------o||
|--4------------(4)-4s5s4-|---2---------------------||
|
|  E  S S S S E  S  S S S     E  S S S S E S S S S
|--0--0-0-0-0-0--0--0-0-0-|---0--0-0-0-0-0-0-0-0-0--||
|--0--0-0-0-0-0--0--0-0-0-|---0--0-0-0-0-0-0-0-0-0-o||
|--x--x-x-x-x-x--x--x-x-x-|---x--x-x-x-x-x-x-x-x-x--||
|--6--6-6-6-6-6--6--6-6-6-|---4--4-4-4-4-4-4-4-4-4--||
|--6--6-6-6-6-6--6--6-4-6-|---4--4-4-4-4-4-4-4-4-4-o||
|--4--4-4-4-4-4--4--4-4-4-|---2--2-2-2-2-2-2-2-2-2--||


   Verse 1
    C#m7                    Asus2
     H.                      Q     +H
||------------------------|------------------------|
||o-----------------------|------------------------|
||--/6--------------------|-/9-----(9)-------------|
||------------------------|------------------------|
||o-----------------------|------------------------|
||------------------------|------------------------|
|
|   Gtr III
|    E  S S S S E S S S S    E S S  S  S E S S S S
||---0--0-0-0-0-0-0-0-0-0-|--0-0-0--0--0-0-0-0-0-0-|
||o--0--0-0-0-0-0-0-0-0-0-|--0-0-0--0--0-0-0-0-0-0-|
||---6--6-6-6-6-6-6-6-6-6-|--2-2-2--2--2-2-2-2-2-2-|
||---6--6-6-6-6-6-6-6-6-6-|--2-2-2--2--2-2-2-2-2-2-|
||o--4--4-4-4-4-4-4-4-4-4-|--0-0-0--0--0-0-0-0-0-0-|
||------------------------|------------------------|


  Emaj7/Ab                       Bsus4
    H            +Q               +H             +Q          4x
|------------------------------|-----------------------------||
|------------------------------|----------------------------o||
|-/11-----------(11)b13========|=(11)r==========(11)---------||
|------------------------------|-----------------------------||
|------------------------------|----------------------------o||
|------------------------------|-----------------------------||
|
|   E S S S S E   S      S S S     E  S S S S E   S  S S S   4x
|---0-0-0-0-0-0---0------0-0-0-|---0--0-0-0-0-0---0--0-0-0---||
|---0-0-0-0-0-0---0------0-0-0-|---0--0-0-0-0-0---0--0-0-0--o||
|---x-x-x-x-x-x---x------x-x-x-|---4--4-4-4-4-4---4--4-4-4---||
|---6-6-6-6-6-6---6------6-6-6-|---4--4-4-4-4-4---4--4-4-4---||
|---6-6-6-6-6-6---6------6-6-6-|---2--2-2-2-2-2---2--2-2-2--o||
|---4-4-4-4-4-4---4------4-4-4-|-----------------------------||


 Chorus 1
  $
  F#7sus4
  >
  E   +E    +E      +E  +E      +E      +E    +E    H
|-------------------------------------|---------------------------||
|-------------------------------------|---------------------------||
|-6b8r(6)---(6)b8r==(6)-(6)b8r==(6)---|-(6)b8r(6)-----------------||
|-------------------------------------|---------------------------||
|-------------------------------------|---------------------------||
|-------------------------------------|---------------------------||
|
| Gtr II
| E    E     E       E   E       E       E     E    E   E E   E
|------------0-------------------0----|-------------0---------0---||
|------4-----------------4------------|--------4----------4-------||
|-6------------------6----------------|--6--------------6---------||
|-------------------------------------|---------------------------||
|-------------------------------------|---------------------------||
|-------------------------------------|---------------------------||
|
| Gtr III
| E    S  S  S    S  E   S    S  S  S    E     S  S S S E S S S S
|-0----0--0--0----0--0---0----0--0--0-|--0-----0--0-0-0-0-0-0-0-0-||
|-0----0--0--0----0--0---0----0--0--0-|--0-----0--0-0-0-0-0-0-0-0-||
|-4----4--4--4----4--4---4----4--4--4-|--4-----4--4-4-4-4-4-4-4-4-||
|-4----4--4--4----4--4---4----4--4--4-|--4-----4--4-4-4-4-4-4-4-4-||
|-2----2--2--2----2--2---2----2--2--2-|--2-----2--2-2-2-2-2-2-2-2-||
|-------------------------------------|---------------------------||


  C#m7                       Asus2
  TP   TPTPTPTPTPTP TP        TP      TP
  E.   S S S S S S  E.        Q      +H
|--------------------------|--------------------------|
|--------------------------|--------------------------|
|-6----6S8-8-8S9-9-11------|--9------(9)--------------|
|--------------------------|--------------------------|
|--------------------------|--------------------------|
|--------------------------|--------------------------|
|
| E.   S E   S E    E.        H.
|--------------------------|--------------------------|
|--------------------------|--------------------------|
|-6----6s8---8s9----4------|-\2-----------------------|
|--------------------------|--------------------------|
|-4----4s6---6s7----2------|-\0-----------------------|
|--------------------------|--------------------------|
|
| E  S S S S S S S  S  S S    E  S S  S  S E S S S S
|-0--0-0-0-0-0-0-0--0--0-0-|--0--0-0--0--0-0-0-0-0-0--|
|-0--0-0-0-0-0-0-0--0--0-0-|--0--0-0--0--0-0-0-0-0-0--|
|-6--6-6-6-6-6-6-6--6--6-6-|--2--2-2--2--2-2-2-2-2-2--|
|-6--6-6-6-6-6-6-6--6--6-6-|--2--2-2--2--2-2-2-2-2-2--|
|-4--4-4-4-4-4-4-4--4--4-4-|--0--0-0--0--0-0-0-0-0-0--|
|--------------------------|--------------------------|


  Emaj7/Ab                  F#7sus4
   TP                         TP
   H.                        +H.
|-------------------------|------------------------|
|-------------------------|------------------------|
|-11----------------------|-(11)-------------------|
|-------------------------|------------------------|
|-------------------------|------------------------|
|-------------------------|------------------------|
|
|  H            +S  S S S     H.
|-------------------------|------------------------|
|-------------------------|------------------------|
|-------------------------|------------------------|
|--6------------(6)-6s7s6-|---4--------------------|
|-------------------------|------------------------|
|--4------------(4)-4s5s4-|---2--------------------|
|
|  E  S S S S E  S  S S S     E  S S S S E S S S S
|--0--0-0-0-0-0--0--0-0-0-|---0--0-0-0-0-0-0-0-0-0-|
|--0--0-0-0-0-0--0--0-0-0-|---0--0-0-0-0-0-0-0-0-0-|
|--x--x-x-x-x-x--x--x-x-x-|---x--x-x-x-x-x-x-x-x-x-|
|--6--6-6-6-6-6--6--6-6-6-|---4--4-4-4-4-4-4-4-4-4-|
|--6--6-6-6-6-6--6--6-6-6-|---4--4-4-4-4-4-4-4-4-4-|
|--4--4-4-4-4-4--4--4-4-4-|---2--2-2-2-2-2-2-2-2-2-|


  C#m7                       Asus2
  TP   TPTPTPTPTPTP TP        TP      TP
  E.   S S S S S S  E.        Q      +H
|--------------------------|--------------------------|
|--------------------------|--------------------------|
|-6----6S8-8-8S9-9-11------|--9------(9)--------------|
|--------------------------|--------------------------|
|--------------------------|--------------------------|
|--------------------------|--------------------------|
|
| E.   S E   S E    E.        H.
|--------------------------|--------------------------|
|--------------------------|--------------------------|
|-6----6s8---8s9----4------|-\2-----------------------|
|--------------------------|--------------------------|
|-4----4s6---6s7----2------|-\0-----------------------|
|--------------------------|--------------------------|
|
| E  S S S S S S S  S  S S    E  S S  S  S E S S S S
|-0--0-0-0-0-0-0-0--0--0-0-|--0--0-0--0--0-0-0-0-0-0--|
|-0--0-0-0-0-0-0-0--0--0-0-|--0--0-0--0--0-0-0-0-0-0--|
|-6--6-6-6-6-6-6-6--6--6-6-|--2--2-2--2--2-2-2-2-2-2--|
|-6--6-6-6-6-6-6-6--6--6-6-|--2--2-2--2--2-2-2-2-2-2--|
|-4--4-4-4-4-4-4-4--4--4-4-|--0--0-0--0--0-0-0-0-0-0--|
|--------------------------|--------------------------|


                                          To Coda
  Emaj7/Ab                  F#7sus4
   TP                         TP
   H.                        +H.
|-------------------------|------------------------||
|-------------------------|------------------------||
|-11----------------------|-(11)-------------------||
|-------------------------|------------------------||
|-------------------------|------------------------||
|-------------------------|------------------------||
|
|  H            +S  S S S     H.
|-------------------------|------------------------||
|-------------------------|------------------------||
|-------------------------|------------------------||
|--6------------(6)-6s7s6-|---4--------------------||
|-------------------------|------------------------||
|--4------------(4)-4s5s4-|---2--------------------||
|
|  E  S S S S E  S  S S S     E  S S S S E S S S S
|--0--0-0-0-0-0--0--0-0-0-|---0--0-0-0-0-0-0-0-0-0-||
|--0--0-0-0-0-0--0--0-0-0-|---0--0-0-0-0-0-0-0-0-0-||
|--x--x-x-x-x-x--x--x-x-x-|---x--x-x-x-x-x-x-x-x-x-||
|--6--6-6-6-6-6--6--6-6-6-|---4--4-4-4-4-4-4-4-4-4-||
|--6--6-6-6-6-6--6--6-6-6-|---4--4-4-4-4-4-4-4-4-4-||
|--4--4-4-4-4-4--4--4-4-4-|---2--2-2-2-2-2-2-2-2-2-||


   Verse 2
    C#m7                    Asus2
     H.                      H.
||------------------------|-----------------------|
||o-----------------------|-----------------------|
||--/6--------------------|-/2--------------------|
||------------------------|-----------------------|
||o-----------------------|-----------------------|
||------------------------|-----------------------|
|
|   Gtr III
|    E  S S S S E S S S S    E  S S S S E S S S S
||---0--0-0-0-0-0-0-0-0-0-|--0--0-0-0-0-0-0-0-0-0-|
||o--0--0-0-0-0-0-0-0-0-0-|--0--0-0-0-0-0-0-0-0-0-|
||---6--6-6-6-6-6-6-6-6-6-|--2--2-2-2-2-2-2-2-2-2-|
||---6--6-6-6-6-6-6-6-6-6-|--2--2-2-2-2-2-2-2-2-2-|
||o--4--4-4-4-4-4-4-4-4-4-|--0--0-0-0-0-0-0-0-0-0-|
||------------------------|-----------------------|


  Emaj7/Ab               Bsus4
  H.                     H.
|----------------------|-----------------------|
|----------------------|-----------------------|
|----------------------|-----------------------|
|-6--------------------|-4---------------------|
|----------------------|-----------------------|
|----------------------|-----------------------|
|
| E  S S S S E S S S S   E  S S S S E S S S S
|-0--0-0-0-0-0-0-0-0-0-|-0--0-0-0-0-0-0-0-0-0--|
|-0--0-0-0-0-0-0-0-0-0-|-0--0-0-0-0-0-0-0-0-0--|
|-x--x-x-x-x-x-x-x-x-x-|-4--4-4-4-4-4-4-4-4-4--|
|-6--6-6-6-6-6-6-6-6-6-|-4--4-4-4-4-4-4-4-4-4--|
|-6--6-6-6-6-6-6-6-6-6-|-2--2-2-2-2-2-2-2-2-2--|
|-4--4-4-4-4-4-4-4-4-4-|-----------------------|


  C#m7                   Asus2
  H.                     H.
|----------------------|----------------------|
|----------------------|----------------------|
|----------------------|----------------------|
|-2--------------------|-1--------------------|
|----------------------|----------------------|
|----------------------|----------------------|
|
| E  S S S S E S S S S   E  S S S S E S S S S
|-0--0-0-0-0-0-0-0-0-0-|-0--0-0-0-0-0-0-0-0-0-|
|-0--0-0-0-0-0-0-0-0-0-|-0--0-0-0-0-0-0-0-0-0-|
|-6--6-6-6-6-6-6-6-6-6-|-2--2-2-2-2-2-2-2-2-2-|
|-6--6-6-6-6-6-6-6-6-6-|-2--2-2-2-2-2-2-2-2-2-|
|-4--4-4-4-4-4-4-4-4-4-|-0--0-0-0-0-0-0-0-0-0-|
|----------------------|----------------------|


                                D.S. al Coda
  Emaj7/Ab               Bsus4
  H.                     H.
|----------------------|-------------------------||
|----------------------|------------------------o||
|----------------------|-------------------------||
|-6--------------------|-4-----------------------||
|----------------------|------------------------o||
|----------------------|-------------------------||
|
| E  S S S S E S S S S   E  S S S S E S S S S
|-0--0-0-0-0-0-0-0-0-0-|-0--0-0-0-0-0-0-0-0-0----||
|-0--0-0-0-0-0-0-0-0-0-|-0--0-0-0-0-0-0-0-0-0---o||
|-x--x-x-x-x-x-x-x-x-x-|-4--4-4-4-4-4-4-4-4-4----||
|-6--6-6-6-6-6-6-6-6-6-|-4--4-4-4-4-4-4-4-4-4----||
|-6--6-6-6-6-6-6-6-6-6-|-2--2-2-2-2-2-2-2-2-2---o||
|-4--4-4-4-4-4-4-4-4-4-|-------------------------||


 Verse 3
  &
  C#m7                    Asus2
   H.                      Q     +H
|-----------------------|------------------------|
|-----------------------|------------------------|
|-/6--------------------|-/9-----(9)-------------|
|-----------------------|------------------------|
|-----------------------|------------------------|
|-----------------------|------------------------|
|
| Gtr III
|  E  S S S S E S S S S    E S S  S  S E S S S S
|--0--0-0-0-0-0-0-0-0-0-|--0-0-0--0--0-0-0-0-0-0-|
|--0--0-0-0-0-0-0-0-0-0-|--0-0-0--0--0-0-0-0-0-0-|
|--6--6-6-6-6-6-6-6-6-6-|--2-2-2--2--2-2-2-2-2-2-|
|--6--6-6-6-6-6-6-6-6-6-|--2-2-2--2--2-2-2-2-2-2-|
|--4--4-4-4-4-4-4-4-4-4-|--0-0-0--0--0-0-0-0-0-0-|
|-----------------------|------------------------|


  Emaj7/Ab                       Bsus4
    H            +Q               +H             +Q
|------------------------------|-----------------------------|
|------------------------------|-----------------------------|
|-/11-----------(11)b13========|=(11)r==========(11)---------|
|------------------------------|-----------------------------|
|------------------------------|-----------------------------|
|------------------------------|-----------------------------|
|
|   E S S S S E   S      S S S     E  S S S S E   S  S S S
|---0-0-0-0-0-0---0------0-0-0-|---0--0-0-0-0-0---0--0-0-0---|
|---0-0-0-0-0-0---0------0-0-0-|---0--0-0-0-0-0---0--0-0-0---|
|---x-x-x-x-x-x---x------x-x-x-|---4--4-4-4-4-4---4--4-4-4---|
|---6-6-6-6-6-6---6------6-6-6-|---4--4-4-4-4-4---4--4-4-4---|
|---6-6-6-6-6-6---6------6-6-6-|---2--2-2-2-2-2---2--2-2-2---|
|---4-4-4-4-4-4---4------4-4-4-|-----------------------------|


  C#m7                        Asus2
   E  E    Q      +Q           H           Q
|---------------------------|--------------9-------|
|---------------------------|----------------------|
|-13h14p==13-----(13)s======|=16-------------------|
|---------------------------|----------------------|
|---------------------------|----------------------|
|---------------------------|----------------------|
|
|  E  S S  S S E   S  S S S    E S S S S E S S S S
|--0--0-0--0-0-0---0--0-0-0-|--0-0-0-0-0-0-0-0-0-0-|
|--0--0-0--0-0-0---0--0-0-0-|--0-0-0-0-0-0-0-0-0-0-|
|--6--6-6--6-6-6---6--6-6-6-|--2-2-2-2-2-2-2-2-2-2-|
|--6--6-6--6-6-6---6--6-6-6-|--2-2-2-2-2-2-2-2-2-2-|
|--4--4-4--4-4-4---4--4-4-4-|--0-0-0-0-0-0-0-0-0-0-|
|---------------------------|----------------------|


  Emaj7/Ab                Bsus4
   H.                      E  E    H
|-12--------------------|-11h12p==11---------------|
|-----------------------|--------------------------|
|-----------------------|--------------------------|
|-----------------------|--------------------------|
|-----------------------|--------------------------|
|-----------------------|--------------------------|
|
|  E  S S S S E S S S S    E  S S  S S E S S S S
|--0--0-0-0-0-0-0-0-0-0-|--0--0-0--0-0-0-0-0-0-0---|
|--0--0-0-0-0-0-0-0-0-0-|--0--0-0--0-0-0-0-0-0-0---|
|--x--x-x-x-x-x-x-x-x-x-|--4--4-4--4-4-4-4-4-4-4---|
|--6--6-6-6-6-6-6-6-6-6-|--4--4-4--4-4-4-4-4-4-4---|
|--6--6-6-6-6-6-6-6-6-6-|--2--2-2--2-2-2-2-2-2-2---|
|--4--4-4-4-4-4-4-4-4-4-|--------------------------|


  C#m7                    Asus2
  H            E    E      H.
|-9---------------------|-----------------------|
|-----------------------|-----------------------|
|-------------16---16s==|=14--------------------|
|-----------------------|-----------------------|
|-----------------------|-----------------------|
|-----------------------|-----------------------|
|
| E S S S S E  S S  S S    E  S S S S E S S S S
|-0-0-0-0-0-0--0-0--0-0-|--0--0-0-0-0-0-0-0-0-0-|
|-0-0-0-0-0-0--0-0--0-0-|--0--0-0-0-0-0-0-0-0-0-|
|-6-6-6-6-6-6--6-6--6-6-|--2--2-2-2-2-2-2-2-2-2-|
|-6-6-6-6-6-6--6-6--6-6-|--2--2-2-2-2-2-2-2-2-2-|
|-4-4-4-4-4-4--4-4--4-4-|--0--0-0-0-0-0-0-0-0-0-|
|-----------------------|-----------------------|


  Emaj7/Ab                 Bsus4
   E  E    H                H.
|------------------------|-------------------------|
|------------------------|-------------------------|
|-13h14p==13-------------|-------------------------|
|------------------------|-\9----------------------|
|------------------------|-------------------------|
|------------------------|-------------------------|
|
|  E  S S  S S E S S S S    E  S S S S E S S S S
|--0--0-0--0-0-0-0-0-0-0-|--0--0-0-0-0-0-0-0-0-0---|
|--0--0-0--0-0-0-0-0-0-0-|--0--0-0-0-0-0-0-0-0-0---|
|--x--x-x--x-x-x-x-x-x-x-|--4--4-4-4-4-4-4-4-4-4---|
|--6--6-6--6-6-6-6-6-6-6-|--4--4-4-4-4-4-4-4-4-4---|
|--6--6-6--6-6-6-6-6-6-6-|--2--2-2-2-2-2-2-2-2-2---|
|--4--4-4--4-4-4-4-4-4-4-|-------------------------|


  C#m7                   Asus2
  H.                     H.
|----------------------|----------------------|
|----------------------|----------------------|
|----------------------|----------------------|
|-6--------------------|-4--------------------|
|----------------------|----------------------|
|----------------------|----------------------|
|
| E  S S S S E S S S S   E  S S S S E S S S S
|-0--0-0-0-0-0-0-0-0-0-|-0--0-0-0-0-0-0-0-0-0-|
|-0--0-0-0-0-0-0-0-0-0-|-0--0-0-0-0-0-0-0-0-0-|
|-6--6-6-6-6-6-6-6-6-6-|-2--2-2-2-2-2-2-2-2-2-|
|-6--6-6-6-6-6-6-6-6-6-|-2--2-2-2-2-2-2-2-2-2-|
|-4--4-4-4-4-4-4-4-4-4-|-0--0-0-0-0-0-0-0-0-0-|
|----------------------|----------------------|


  Emaj7/Ab               Bsus4
  H.                     H.
|----------------------|------------------------|
|----------------------|------------------------|
|----------------------|------------------------|
|-2--------------------|-1----------------------|
|----------------------|------------------------|
|----------------------|------------------------|
|
| E  S S S S E S S S S   E  S S S S E S S S S
|-0--0-0-0-0-0-0-0-0-0-|-0--0-0-0-0-0-0-0-0-0---|
|-0--0-0-0-0-0-0-0-0-0-|-0--0-0-0-0-0-0-0-0-0---|
|-x--x-x-x-x-x-x-x-x-x-|-4--4-4-4-4-4-4-4-4-4---|
|-6--6-6-6-6-6-6-6-6-6-|-4--4-4-4-4-4-4-4-4-4---|
|-6--6-6-6-6-6-6-6-6-6-|-2--2-2-2-2-2-2-2-2-2---|
|-4--4-4-4-4-4-4-4-4-4-|------------------------|


  C#m7                     Asus2
  TP          TP            TP          TP
  Q.          Q.            Q.          Q.
|-9----------12----------|-14----------16----------|
|------------------------|-------------------------|
|------------------------|-------------------------|
|------------------------|-------------------------|
|------------------------|-------------------------|
|------------------------|-------------------------|
|
| E  S S S S  E  S S S S    E  S S S S  E  S S S S
|-0--0-0-0-0--0--0-0-0-0-|--0--0-0-0-0--0--0-0-0-0-|
|-0--0-0-0-0--0--0-0-0-0-|--0--0-0-0-0--0--0-0-0-0-|
|-6--6-6-6-6--6--6-6-6-6-|--2--2-2-2-2--2--2-2-2-2-|
|-6--6-6-6-6--6--6-6-6-6-|--2--2-2-2-2--2--2-2-2-2-|
|-4--4-4-4-4--4--4-4-4-4-|--0--0-0-0-0--0--0-0-0-0-|
|------------------------|-------------------------|


  Emaj7/Ab                 Bsus4
  TP          TP            TP          TP
  Q.          Q.            Q.          Q.
|-9----------12----------|-14----------16------------|
|------------------------|---------------------------|
|------------------------|---------------------------|
|------------------------|---------------------------|
|------------------------|---------------------------|
|------------------------|---------------------------|
|
| E  S S S S  E  S S S S    E  S S S S  E  S S S S
|-0--0-0-0-0--0--0-0-0-0-|--0--0-0-0-0--0--0-0-0-0---|
|-0--0-0-0-0--0--0-0-0-0-|--0--0-0-0-0--0--0-0-0-0---|
|-x--x-x-x-x--x--x-x-x-x-|--4--4-4-4-4--4--4-4-4-4---|
|-6--6-6-6-6--6--6-6-6-6-|--4--4-4-4-4--4--4-4-4-4---|
|-6--6-6-6-6--6--6-6-6-6-|--2--2-2-2-2--2--2-2-2-2---|
|-4--4-4-4-4--4--4-4-4-4-|---------------------------|


  C#m7                     Asus2
  TP          TP            TP          TP
  Q.          Q.            Q.          Q.
|-9----------12----------|-14----------16----------|
|------------------------|-------------------------|
|------------------------|-------------------------|
|------------------------|-------------------------|
|------------------------|-------------------------|
|------------------------|-------------------------|
|
| E  S S S S  E  S S S S    E  S S S S  E  S S S S
|-0--0-0-0-0--0--0-0-0-0-|--0--0-0-0-0--0--0-0-0-0-|
|-0--0-0-0-0--0--0-0-0-0-|--0--0-0-0-0--0--0-0-0-0-|
|-6--6-6-6-6--6--6-6-6-6-|--2--2-2-2-2--2--2-2-2-2-|
|-6--6-6-6-6--6--6-6-6-6-|--2--2-2-2-2--2--2-2-2-2-|
|-4--4-4-4-4--4--4-4-4-4-|--0--0-0-0-0--0--0-0-0-0-|
|------------------------|-------------------------|


  Emaj7/Ab                Bsus4
   TP
   H.                      +H.
|-16--------------------|-(16)---------------------|
|-----------------------|--------------------------|
|-----------------------|--------------------------|
|-----------------------|--------------------------|
|-----------------------|--------------------------|
|-----------------------|--------------------------|
|
|  E  S S S S E S S S S     E  S S S S E S S S S
|--0--0-0-0-0-0-0-0-0-0-|---0--0-0-0-0-0-0-0-0-0---|
|--0--0-0-0-0-0-0-0-0-0-|---0--0-0-0-0-0-0-0-0-0---|
|--x--x-x-x-x-x-x-x-x-x-|---4--4-4-4-4-4-4-4-4-4---|
|--6--6-6-6-6-6-6-6-6-6-|---4--4-4-4-4-4-4-4-4-4---|
|--6--6-6-6-6-6-6-6-6-6-|---2--2-2-2-2-2-2-2-2-2---|
|--4--4-4-4-4-4-4-4-4-4-|--------------------------|


   Interlude 1
    C#5                       A5
    Gtr I
    E.   S E   S E   E.       H.
||--------------------------|----------------------|
||o-------------------------|----------------------|
||--6----6S8---8s9---4------|-2--------------------|
||--------------------------|----------------------|
||o-4----4S6---6s7---2------|-0--------------------|
||--------------------------|----------------------|
|
|   Gtr IV
|   E  S S S S E   S S  S S   E  S S S S E S S S S
||--------------------------|----------------------|
||o-------------------------|----------------------|
||--6--6-6-6-6-6---6-6--6-6-|-2--2-2-2-2-2-2-2-2-2-|
||--6--6-6-6-6-6---6-6--6-6-|-2--2-2-2-2-2-2-2-2-2-|
||o-4--4-4-4-4-4---4-4--4-4-|-0--0-0-0-0-0-0-0-0-0-|
||--------------------------|----------------------|


  G#5                    B5
  H.                     H.                    4x
|----------------------|-----------------------||
|----------------------|----------------------o||
|----------------------|-4---------------------||
|-6--------------------|-----------------------||
|----------------------|-2--------------------o||
|-4--------------------|-----------------------||
|
| E  S S S S E S S S S   E  S S S S E S S S S  4x
|----------------------|-----------------------||
|----------------------|----------------------o||
|----------------------|-4--4-4-4-4-4-4-4-4-4--||
|-6--6-6-6-6-6-6-6-6-6-|-4--4-4-4-4-4-4-4-4-4--||
|-6--6-6-6-6-6-6-6-6-6-|-2--2-2-2-2-2-2-2-2-2-o||
|-4--4-4-4-4-4-4-4-4-4-|-----------------------||


 Guitar Solo 1
  C#5                        A5
  TP   TP     TP    TP       TP
  E.   E.     E.    E.       H.
|--------------------------|----------------------|
|--------------------------|----------------------|
|-6----8------9----11------|-9--------------------|
|--------------------------|----------------------|
|--------------------------|----------------------|
|--------------------------|----------------------|
|
| E  S S  S S E  S  S  S S   E  S S S S E S S S S
|--------------------------|----------------------|
|--------------------------|----------------------|
|-6--6-6--6-6-6--6--6--6-6-|-2--2-2-2-2-2-2-2-2-2-|
|-6--6-6--6-6-6--6--6--6-6-|-2--2-2-2-2-2-2-2-2-2-|
|-4--4-4--4-4-4--4--4--4-4-|-0--0-0-0-0-0-0-0-0-0-|
|--------------------------|----------------------|


  G#5                             B5
  H           S   +S  +S    +S    H.
|-------------------------------|------------------------|
|-------------------------------|------------------------|
|-8-----------8---(8)-(8)---(8)-|-4----------------------|
|-------------------------------|------------------------|
|-6-----------6b8r(6)-(6)b8r(6)-|-2----------------------|
|-------------------------------|------------------------|
|
| E S S S S E S    S   S     S    E  S S S S E S S S S
|-------------------------------|------------------------|
|-------------------------------|------------------------|
|-------------------------------|-4--4-4-4-4-4-4-4-4-4---|
|-6-6-6-6-6-6-6----6---6-----6--|-4--4-4-4-4-4-4-4-4-4---|
|-6-6-6-6-6-6-6----6---6-----6--|-2--2-2-2-2-2-2-2-2-2---|
|-4-4-4-4-4-4-4----4---4-----4--|------------------------|


  C#5                        A5
  TP   TP     TP    TP       TP    TP      TP   TP
  E.   E.     E.    E.       E.    E.      E.   E.
|--------------------------|--------------------9------|
|--------------------------|---------------------------|
|-6----8------9----11------|-9----11------13-----------|
|--------------------------|---------------------------|
|--------------------------|---------------------------|
|--------------------------|---------------------------|
|
| E  S S  S S E  S  S  S S   E  S  S  S S  E  S S  S S
|--------------------------|---------------------------|
|--------------------------|---------------------------|
|-6--6-6--6-6-6--6--6--6-6-|-2--2--2--2-2--2--2-2--2-2-|
|-6--6-6--6-6-6--6--6--6-6-|-2--2--2--2-2--2--2-2--2-2-|
|-4--4-4--4-4-4--4--4--4-4-|-0--0--0--0-0--0--0-0--0-0-|
|--------------------------|---------------------------|


  E5                      F#5             N.C.
   TP                      TP
   H.                      H.
|-12--------------------|-14----------------------------|
|-----------------------|-------------------------------|
|-----------------------|-------------------------------|
|-----------------------|-------------------------------|
|-----------------------|-------------------------------|
|-----------------------|-------------------------------|
|
|                                         TPTPTPTPTPTP
|  E  S S S S E S S S S    E   S  S  S  S S S S S S S
|-----------------------|-------------------------------|
|-----------------------|-------------------------------|
|--9--9-9-9-9-9-9-9-9-9-|-11--11-11-11-11---------------|
|--9--9-9-9-9-9-9-9-9-9-|-11--11-11-11-11-xSxSxSxSxSx\--|
|--7--7-7-7-7-7-7-7-7-7-|--9---9--9--9--9-xSxSxSxSxSx\--|
|-----------------------|-------------------------------|


   Interlude 2
    C#5                   A5
    Gtrs I, IV
    E S S S S E S S S S   E S S S S E S S S S
||----------------------|---------------------|
||o---------------------|---------------------|
||--6-6-6-6-6-6-6-6-6-6-|-2-2-2-2-2-2-2-2-2-2-|
||--6-6-6-6-6-6-6-6-6-6-|-2-2-2-2-2-2-2-2-2-2-|
||o-4-4-4-4-4-4-4-4-4-4-|-0-0-0-0-0-0-0-0-0-0-|
||----------------------|---------------------|


  G#5                   B5
  E S S S S E S S S S   E S S S S E S S S S   6x
|---------------------|-----------------------||
|---------------------|----------------------o||
|---------------------|-4-4-4-4-4-4-4-4-4-4---||
|-6-6-6-6-6-6-6-6-6-6-|-4-4-4-4-4-4-4-4-4-4---||
|-6-6-6-6-6-6-6-6-6-6-|-2-2-2-2-2-2-2-2-2-2--o||
|-4-4-4-4-4-4-4-4-4-4-|-----------------------||


 Guitar Solo 2
  C#5                         A5
  Gtr I
  E.   E.      Q      +E      H.
|---------------------------|----------------------|
|---------------------------|----------------------|
|-8----9------11-----(11)S==|=9--------------------|
|---------------------------|----------------------|
|---------------------------|----------------------|
|---------------------------|----------------------|
|
| Gtr IV
| E  S S  S S  E S S   S  S   E  S S S S E S S S S
|---------------------------|----------------------|
|---------------------------|----------------------|
|-6--6-6--6-6--6-6-6---6--6-|-2--2-2-2-2-2-2-2-2-2-|
|-6--6-6--6-6--6-6-6---6--6-|-2--2-2-2-2-2-2-2-2-2-|
|-4--4-4--4-4--4-4-4---4--4-|-0--0-0-0-0-0-0-0-0-0-|
|---------------------------|----------------------|


  G#5                       B5
  S S S S S S S S S S S S   S S S S S S S S S S S S
|-------------------------|---------------------------|
|-------------------------|---------------------------|
|-8-9-9-9-9-9-9-9-9-9-9-9-|-9-9-9-9-9-9-9-9-9-9-9-9---|
|-------------------------|---------------------------|
|-------------------------|---------------------------|
|-------------------------|---------------------------|
|
| E   S S S S E   S S S S   E   S S S S E   S S S S
|-------------------------|---------------------------|
|-------------------------|---------------------------|
|-------------------------|-4---4-4-4-4-4---4-4-4-4---|
|-6---6-6-6-6-6---6-6-6-6-|-4---4-4-4-4-4---4-4-4-4---|
|-6---6-6-6-6-6---6-6-6-6-|-2---2-2-2-2-2---2-2-2-2---|
|-4---4-4-4-4-4---4-4-4-4-|---------------------------|


  C#5                       A5
  S S S S S S S S S S S S   S S S S S S S S S S S S
|-------------------------|-------------------------|
|-------------------------|-------------------------|
|-9-9-9-9-9-9-9-9-9-9-9-9-|-9-9-9-9-9-9-9-9-9-9-9-9-|
|-------------------------|-------------------------|
|-------------------------|-------------------------|
|-------------------------|-------------------------|
|
| E   S S S S E   S S S S   E   S S S S E   S S S S
|-------------------------|-------------------------|
|-------------------------|-------------------------|
|-6---6-6-6-6-6---6-6-6-6-|-2---2-2-2-2-2---2-2-2-2-|
|-6---6-6-6-6-6---6-6-6-6-|-2---2-2-2-2-2---2-2-2-2-|
|-4---4-4-4-4-4---4-4-4-4-|-0---0-0-0-0-0---0-0-0-0-|
|-------------------------|-------------------------|


  G#5                                   B5
   S  S  S  S  S  S  S  S  S  S  S  S    S  S  S  S  S  S  S  S  S  S  S  S
|-------------------------------------|---------------------------------------|
|-------------------------------------|---------------------------------------|
|-11-11-11-11-11-11-11-11-11-11-11-11-|-11-11-11-11-11-11-11-11-11-11-11-11---|
|-------------------------------------|---------------------------------------|
|-------------------------------------|---------------------------------------|
|-------------------------------------|---------------------------------------|
|
|  E     S  S  S  S  E     S  S  S  S    E     S  S  S  S  E     S  S  S  S
|-------------------------------------|---------------------------------------|
|-------------------------------------|---------------------------------------|
|-------------------------------------|--4-----4--4--4--4--4-----4--4--4--4---|
|--6-----6--6--6--6--6-----6--6--6--6-|--4-----4--4--4--4--4-----4--4--4--4---|
|--6-----6--6--6--6--6-----6--6--6--6-|--2-----2--2--2--2--2-----2--2--2--2---|
|--4-----4--4--4--4--4-----4--4--4--4-|---------------------------------------|


  C#5                                   A5
   S  S  S  S  S  S  S  S  S  S  S  S    S  S  S  S  S  S  S  S  S  S  S  S
|-------------------------------------|-------------------------------------|
|-------------------------------------|-------------------------------------|
|-13-13-13-13-13-13-13-13-13-13-13-13-|-13-13-13-13-13-13-13-13-13-13-13-13-|
|-------------------------------------|-------------------------------------|
|-------------------------------------|-------------------------------------|
|-------------------------------------|-------------------------------------|
|
|  E     S  S  S  S  E     S  S  S  S    E     S  S  S  S  E     S  S  S  S
|-------------------------------------|-------------------------------------|
|-------------------------------------|-------------------------------------|
|--6-----6--6--6--6--6-----6--6--6--6-|--2-----2--2--2--2--2-----2--2--2--2-|
|--6-----6--6--6--6--6-----6--6--6--6-|--2-----2--2--2--2--2-----2--2--2--2-|
|--4-----4--4--4--4--4-----4--4--4--4-|--0-----0--0--0--0--0-----0--0--0--0-|
|-------------------------------------|-------------------------------------|


  G#5                                   B5
   S  S  S  S  S  S  S  S  S  S  S  S    S  S  S  S  S  S  S  S  S  S  S  S
|-12-12-12-12-12-12-12-12-12-12-12-12-|-14-14-14-14-14-14-14-14-14-14-14-14---|
|-------------------------------------|---------------------------------------|
|-------------------------------------|---------------------------------------|
|-------------------------------------|---------------------------------------|
|-------------------------------------|---------------------------------------|
|-------------------------------------|---------------------------------------|
|
|  E     S  S  S  S  E     S  S  S  S    E     S  S  S  S  E     S  S  S  S
|-------------------------------------|---------------------------------------|
|-------------------------------------|---------------------------------------|
|-------------------------------------|--4-----4--4--4--4--4-----4--4--4--4---|
|--6-----6--6--6--6--6-----6--6--6--6-|--4-----4--4--4--4--4-----4--4--4--4---|
|--6-----6--6--6--6--6-----6--6--6--6-|--2-----2--2--2--2--2-----2--2--2--2---|
|--4-----4--4--4--4--4-----4--4--4--4-|---------------------------------------|


  C#5                                   A5
   S  S  S  S  S  S  S  S  S  S  S  S    S  S  S  S  S  S  S  S  S  S  S  S
|-14-14-14-14-14-14-14-14-14-14-14-14-|-14-14-14-14-14-14-14-14-14-14-14-14-|
|-------------------------------------|-------------------------------------|
|-------------------------------------|-------------------------------------|
|-------------------------------------|-------------------------------------|
|-------------------------------------|-------------------------------------|
|-------------------------------------|-------------------------------------|
|
|  E     S  S  S  S  E     S  S  S  S    E     S  S  S  S  E     S  S  S  S
|-------------------------------------|-------------------------------------|
|-------------------------------------|-------------------------------------|
|--6-----6--6--6--6--6-----6--6--6--6-|--2-----2--2--2--2--2-----2--2--2--2-|
|--6-----6--6--6--6--6-----6--6--6--6-|--2-----2--2--2--2--2-----2--2--2--2-|
|--4-----4--4--4--4--4-----4--4--4--4-|--0-----0--0--0--0--0-----0--0--0--0-|
|-------------------------------------|-------------------------------------|


  G#5                                   B5
   S  S  S  S  S  S  S  S  S  S  S  S    S  S  S  S  S  S  S  S  S  S  S  S
|-14-14-14-14-14-14-14-14-14-14-14-14-|-14-14-14-14-14-14-14-14-14-14-14-14---|
|-------------------------------------|---------------------------------------|
|-------------------------------------|---------------------------------------|
|-------------------------------------|---------------------------------------|
|-------------------------------------|---------------------------------------|
|-------------------------------------|---------------------------------------|
|
|  E     S  S  S  S  E     S  S  S  S    E     S  S  S  S  E     S  S  S  S
|-------------------------------------|---------------------------------------|
|-------------------------------------|---------------------------------------|
|-------------------------------------|--4-----4--4--4--4--4-----4--4--4--4---|
|--6-----6--6--6--6--6-----6--6--6--6-|--4-----4--4--4--4--4-----4--4--4--4---|
|--6-----6--6--6--6--6-----6--6--6--6-|--2-----2--2--2--2--2-----2--2--2--2---|
|--4-----4--4--4--4--4-----4--4--4--4-|---------------------------------------|


  C#5                       A5
  S S S S S S S S S S S S    S  S  S  S  S  S  S  S  S  S  S  S
|-------------------------|-------------------------------------|
|-------------------------|-------------------------------------|
|-9-9-9-9-9-9-9-9-9-9-9-9-|-11-11-11-11-11-11-11-11-11-11-11-11-|
|-------------------------|-------------------------------------|
|-------------------------|-------------------------------------|
|-------------------------|-------------------------------------|
|
| E   S S S S E   S S S S    E     S  S  S  S  E     S  S  S  S
|-------------------------|-------------------------------------|
|-------------------------|-------------------------------------|
|-6---6-6-6-6-6---6-6-6-6-|--2-----2--2--2--2--2-----2--2--2--2-|
|-6---6-6-6-6-6---6-6-6-6-|--2-----2--2--2--2--2-----2--2--2--2-|
|-4---4-4-4-4-4---4-4-4-4-|--0-----0--0--0--0--0-----0--0--0--0-|
|-------------------------|-------------------------------------|


  G#5                       B5
  S S S S S S S S S S S S   S S S S S S S S S S S S
|-------------------------|---------------------------|
|-------------------------|---------------------------|
|-9-9-9-9-9-9-9-9-9-9-9-9-|-8-8-8-8-8-8-8-8-8-8-8-8---|
|-------------------------|---------------------------|
|-------------------------|---------------------------|
|-------------------------|---------------------------|
|
| E   S S S S E   S S S S   E   S S S S E   S S S S
|-------------------------|---------------------------|
|-------------------------|---------------------------|
|-------------------------|-4---4-4-4-4-4---4-4-4-4---|
|-6---6-6-6-6-6---6-6-6-6-|-4---4-4-4-4-4---4-4-4-4---|
|-6---6-6-6-6-6---6-6-6-6-|-2---2-2-2-2-2---2-2-2-2---|
|-4---4-4-4-4-4---4-4-4-4-|---------------------------|


  C#5                                   A5
   S  S  S  S  S  S  S  S  S  S  S  S    S  S  S  S  S  S  S  S  S  S  S  S
|-14-14-14-14-14-14-14-14-14-14-14-14-|-14-14-14-14-14-14-14-14-14-14-14-14-|
|-------------------------------------|-------------------------------------|
|-------------------------------------|-------------------------------------|
|-------------------------------------|-------------------------------------|
|-------------------------------------|-------------------------------------|
|-------------------------------------|-------------------------------------|
|
|  E     S  S  S  S  E     S  S  S  S    E     S  S  S  S  E     S  S  S  S
|-------------------------------------|-------------------------------------|
|-------------------------------------|-------------------------------------|
|--6-----6--6--6--6--6-----6--6--6--6-|--2-----2--2--2--2--2-----2--2--2--2-|
|--6-----6--6--6--6--6-----6--6--6--6-|--2-----2--2--2--2--2-----2--2--2--2-|
|--4-----4--4--4--4--4-----4--4--4--4-|--0-----0--0--0--0--0-----0--0--0--0-|
|-------------------------------------|-------------------------------------|


  G#5                                   B5
   S  S  S  S  S  S  S  S  S  S  S  S    S  S  S  S  S  S  S  S  S  S  S  S
|-14-14-14-14-14-14-14-14-14-14-14-14-|-14-14-14-14-14-14-14-14-14-14-14-14---|
|-------------------------------------|---------------------------------------|
|-------------------------------------|---------------------------------------|
|-------------------------------------|---------------------------------------|
|-------------------------------------|---------------------------------------|
|-------------------------------------|---------------------------------------|
|
|  E     S  S  S  S  E     S  S  S  S    E     S  S  S  S  E     S  S  S  S
|-------------------------------------|---------------------------------------|
|-------------------------------------|---------------------------------------|
|-------------------------------------|--4-----4--4--4--4--4-----4--4--4--4---|
|--6-----6--6--6--6--6-----6--6--6--6-|--4-----4--4--4--4--4-----4--4--4--4---|
|--6-----6--6--6--6--6-----6--6--6--6-|--2-----2--2--2--2--2-----2--2--2--2---|
|--4-----4--4--4--4--4-----4--4--4--4-|---------------------------------------|


  C#5            B5 C#5            B5   C#5                     N.C.
   S  S  S  S  S  S  S  S  S  S  S  S    S  S  S  S  S  S  S  S  S  S  S  S
|-14-14-14-14-14-14-14-14-14-14-14-14-|-14-14-14-14-14-14-14-14-14-14-14-14-|
|-------------------------------------|-------------------------------------|
|-------------------------------------|-------------------------------------|
|-------------------------------------|-------------------------------------|
|-------------------------------------|-------------------------------------|
|-------------------------------------|-------------------------------------|
|
|  E     S  S  S  S  E     S  S  S  S    E     S  S  S  S  E     S  S  S  S
|-------------------------------------|-------------------------------------|
|-------------------------------------|-------------------------------------|
|--6-----6--6--6--4--6-----6--6--6--4-|--6-----6--6--6--6--6-----x--x--x--x-|
|--6-----6--6--6--4--6-----6--6--6--4-|--6-----6--6--6--6--6-----x--x--x--x-|
|--4-----4--4--4--2--4-----4--4--4--2-|--4-----4--4--4--4--4-----x--x--x--x-|
|-------------------------------------|-------------------------------------|


  C#5            B5 C#5            B5   C#5
   S  S  S  S  S  S  S  S  S  S  S  S    S  S  S  S  S  S  S  S  S  S  S  S
|-14-14-14-14-14-14-14-14-14-14-14-14-|-14-14-14-14-14-14-14-14-14-14-14-14---|
|-------------------------------------|---------------------------------------|
|-------------------------------------|---------------------------------------|
|-------------------------------------|---------------------------------------|
|-------------------------------------|---------------------------------------|
|-------------------------------------|---------------------------------------|
|
|  E     S  S  S  S  E     S  S  S  S    E     S  S  S  S  E     S  S  S  S
|-------------------------------------|---------------------------------------|
|-------------------------------------|---------------------------------------|
|--6-----6--6--6--4--6-----6--6--6--4-|--6-----6--6--6--6--6-----6--6--6--6---|
|--6-----6--6--6--4--6-----6--6--6--4-|--6-----6--6--6--6--6-----6--6--6--6---|
|--4-----4--4--4--2--4-----4--4--4--2-|--4-----4--4--4--4--4-----4--4--4--4---|
|-------------------------------------|---------------------------------------|


 Bridge
  Asus2
  Gtr V
   S  S  S  S  S   S  S S  S  S S  S    S S  S  S  S   S  S S  S  S S  S
|------------------------------------|-----------------------------------|
|------------------------------------|-----------------------------------|
|-13--9-11-13--9--11-13-9-11-13-9-11-|-13-9-11-13--9--11-13-9-11-13-9-11-|
|------------------------------------|-----------------------------------|
|------------------------------------|-----------------------------------|
|------------------------------------|-----------------------------------|
|
| Gtr IV
|  S  S  E    +H                        S S  E    +H
|------------------------------------|-----------------------------------|
|------------------------------------|-----------------------------------|
|--9h11p=9----(9)--------------------|--8h9p=8----(8)--------------------|
|------------------------------------|-----------------------------------|
|------------------------------------|-----------------------------------|
|------------------------------------|-----------------------------------|
|
| Gtr I
|  H.                                   H.
|-^0---------------------------------|-^0--------------------------------|
|-^0---------------------------------|-^0--------------------------------|
|-^2---------------------------------|-^2--------------------------------|
|-^2---------------------------------|-^2--------------------------------|
|-^0---------------------------------|-^0--------------------------------|
|------------------------------------|-----------------------------------|


   S  S  S  S  S   S  S S  S  S S  S    S  S  S  S  S   S  S S  S  S S  S
|------------------------------------|--------------------------------------|
|------------------------------------|--------------------------------------|
|-13--9-11-13--9--11-13-9-11-13-9-11-|-13--9-11-13--9--11-13-9-11-13-9-11---|
|------------------------------------|--------------------------------------|
|------------------------------------|--------------------------------------|
|------------------------------------|--------------------------------------|
|
|  S  S  E    +H                        S  S  E    +H
|------------------------------------|--------------------------------------|
|------------------------------------|--------------------------------------|
|------------------------------------|--------------------------------------|
|--9h11p=9----(9)--------------------|--------------------------------------|
|------------------------------------|--9h11p=9----(9)----------------------|
|------------------------------------|--------------------------------------|
|
|  H.                                   H.
|-^0---------------------------------|-^0-----------------------------------|
|-^0---------------------------------|-^0-----------------------------------|
|-^2---------------------------------|-^2-----------------------------------|
|-^2---------------------------------|-^2-----------------------------------|
|-^0---------------------------------|-^0-----------------------------------|
|------------------------------------|--------------------------------------|


   H.          H.          H.          H.
|----------|-----------|-----------|---------|
|----------|-----------|-----------|---------|
|----------|-----------|-----------|---------|
|----------|-----------|-----------|---------|
|----------|-----------|-----------|---------|
|----------|-----------|-----------|---------|
|
|  H.         +H.         +H.         +H.
|----------|-----------|-----------|---------|
|----------|-----------|-----------|---------|
|----------|-----------|-----------|---------|
|----------|-----------|-----------|---------|
|----------|-----------|-----------|---------|
|-12-------|-(12)------|-(12)------|-(12)----|
|
|  H.          H.          H.          H.
|-^0-------|---0-------|---0-------|---0-----|
|-^0-------|---0-------|---0-------|---0-----|
|-^2-------|---2-------|---2-------|---2-----|
|-^2-------|---2-------|---2-------|---2-----|
|-^0-------|---0-------|---0-------|---0-----|
|----------|-----------|-----------|---------|


  Gtr IV
   H.         H.         H.         H.
|----------|----------|----------|--------||
|----------|----------|----------|--------||
|----------|----------|----------|--------||
|----------|----------|----------|--------||
|----------|----------|----------|--------||
|----------|----------|----------|--------||
|
| Gtr I
| +H.        +H.        +H.        +H.
|-(0)------|-(0)------|-(0)------|-(0)----||
|-(0)------|-(0)------|-(0)------|-(0)----||
|-(2)------|-(2)------|-(2)------|-(2)----||
|-(2)------|-(2)------|-(2)------|-(2)----||
|-(0)------|-(0)------|-(0)------|-(0)----||
|----------|----------|----------|--------||


                      Guitar Break
                       N.C.
                      4/4
  H.        H.          W
|---------|---------||--------|
|---------|---------||--------|
|---------|---------||--------|
|---------|---------||--------|
|---------|---------||--------|
|---------|---------||--------|
|
|                       <
| W         W           W
|---------|---------||--------|
|---------|---------||--------|
|---------|---------||-----|
|---------|---------||--------|
|---------|---------||--------|
|---------|---------||--------|


  Q=105
                                A5
 4/4
  Gtr VI
    W              W              W             +W
|--------------|--------------|--------------|----------|
|--------------|--------------|--------------|----------|
|--------------|--------------|--------------|----------|
|--------------|---6----------|--------------|----------|
|---4----------|--------------|---7----------|--(7)-----|
|--------------|--------------|--------------|----------|
|
| Gtr IV
|   W              W              W             +W
|--------------|--------------|--------------|----------|
|--------------|--------------|--------------|----------|
|--------------|--------------|--------------|----------|
|--------------|--------------|-^-2----------|--(2)-----|
|--------------|--------------|-^-0----------|--(0)-----|
|--------------|--------------|--------------|----------|
|
| Gtr I
|                                                >
|  +W             +W             +W             +W
|--------------|--------------|--------------|----------|
|--------------|--------------|--------------|----------|
|-()--------|-()--------|-()--------|-()----|
|--------------|--------------|--------------|----------|
|--------------|--------------|--------------|----------|
|--------------|--------------|--------------|----------|


  E5                            B5
  Gtr VI
    H      H       H     H      W          +W
|---------------|-------------|----------|--------|
|---------------|-------------|----------|--------|
|---------------|-------------|----------|--------|
|---------------|-------------|----------|--------|
|---7------9----|-11-----7----|-9--------|-(9)----|
|---------------|-------------|----------|--------|
|
|   W             +W            W          +W
|---------------|-------------|----------|--------|
|---------------|-------------|----------|--------|
|---------------|-------------|----------|--------|
|---------------|-------------|-4--------|-(4)----|
|---2-----------|-(2)---------|-2--------|-(2)----|
|---0-----------|-(0)---------|----------|--------|
|
|  +W              W            W           W
|---------------|-------------|----------|--------|
|---------------|-------------|----------|--------|
|-()---------|-------------|----------|--------|
|---------------|-------------|----------|--------|
|---------------|-------------|----------|--------|
|---------------|-------------|----------|--------|


  N.C.                    A5
  W           W           W          +W
|----------|------------|----------|--------|
|----------|------------|----------|--------|
|----------|------------|----------|--------|
|----------|------------|----------|--------|
|-4--------|-11---------|-7--------|-(7)----|
|----------|------------|----------|--------|
|
| W          +W           W          +W
|----------|------------|----------|--------|
|----------|------------|----------|--------|
|----------|------------|----------|--------|
|----------|------------|-2--------|-(2)----|
|-4--------|-(4)--------|-0--------|-(0)----|
|----------|------------|----------|--------|


  A5          E5           B5
  H    H       H    H      W          +H     Q  Q
|-----------|------------|----------|-------------|
|-----------|------------|----------|-------------|
|-----------|------------|----------|--------9--8-|
|-----------|------------|----------|-------------|
|-7----9----|-11----7----|-9--------|-(9)---------|
|-----------|------------|----------|-------------|
|
| W            W           W          +W
|-----------|------------|----------|-------------|
|-----------|------------|----------|-------------|
|-----------|------------|----------|-------------|
|-2---------|------------|-4--------|-(4)---------|
|-0---------|--2---------|-2--------|-(2)---------|
|-----------|--0---------|----------|-------------|


  A5
  W          +W            H     H       H      H
|----------|------------|-------------|-------------|
|----------|------------|-------------|-------------|
|----------|------------|--9-----8----|-------------|
|----------|------------|-------------|-\9-----/6---|
|-7--------|-(7)--------|-------------|-------------|
|----------|------------|-------------|-------------|
|
| W          +W           +W            +W
|----------|------------|-------------|-------------|
|----------|------------|-------------|-------------|
|-2--------|-(2)--------|-(2)---------|-(2)---------|
|-2--------|-(2)--------|-(2)---------|-(2)---------|
|-0--------|-(0)--------|-(0)---------|-(0)---------|
|----------|------------|-------------|-------------|


 Outro
  N.C.                      A5
  W          +H      H      W           W
|----------|--------------|----------|--------|
|----------|--------------|----------|--------|
|----------|--------------|----------|--9-----|
|----------|--------------|----------|--------|
|-4--------|-(4)----11----|-7--------|--------|
|----------|--------------|----------|--------|
|
| W          +W             W          +W
|----------|--------------|----------|--------|
|----------|--------------|----------|--------|
|----------|--------------|----------|--------|
|----------|--------------|-2--------|-(2)----|
|-4--------|-(4)----------|-0--------|-(0)----|
|----------|--------------|----------|--------|


  E5                         B5
  H     H       H     H      W          +W
|------------|-------------|----------|--------|
|------------|-------------|----------|--------|
|-9----11----|-13-----9----|-8--------|-(8)----|
|------------|-------------|----------|--------|
|------------|-------------|----------|--------|
|------------|-------------|----------|--------|
|
| W            +W            W          +W
|------------|-------------|----------|--------|
|------------|-------------|----------|--------|
|------------|-------------|----------|--------|
|------------|-------------|-4--------|-(4)----|
|-2----------|-(2)---------|-2--------|-(2)----|
|-0----------|-(0)---------|----------|--------|


  A5
  W           H      E      +E   +Q     W          +W
|----------|--------------------------|----------|--------|
|----------|--------------------------|----------|--------|
|-9--------|--------------------------|----------|--------|
|----------|--------------------------|----------|--------|
|----------|-11-----11b13==(11)r(11)--|-7--------|-(7)----|
|----------|--------------------------|----------|--------|
|
| W          +W                         W          +W
|----------|--------------------------|----------|--------|
|----------|--------------------------|----------|--------|
|----------|--------------------------|----------|--------|
|-2--------|-(2)----------------------|-2--------|-(2)----|
|-0--------|-(0)----------------------|-0--------|-(0)----|
|----------|--------------------------|----------|--------|


  E5
  H    H       H     H      W          +W
|-----------|-------------|----------|--------|
|-----------|-------------|----------|--------|
|-----------|-------------|----------|--------|
|-----------|-------------|----------|--------|
|-7----9----|-11-----7----|-6--------|-(6)----|
|-----------|-------------|----------|--------|
|
| W           +W            W          +W
|-----------|-------------|----------|--------|
|-----------|-------------|----------|--------|
|-----------|-------------|----------|--------|
|-----------|-------------|----------|--------|
|-2---------|-(2)---------|-2--------|-(2)----|
|-0---------|-(0)---------|-0--------|-(0)----|


  A5                      E5
  W           W           W          +W
|----------|------------|----------|--------|
|----------|------------|----------|--------|
|----------|-13---------|----------|--------|
|----------|------------|----------|--------|
|-9--------|------------|-7--------|-(7)----|
|----------|------------|----------|--------|
|
| W          +W           W          +W
|----------|------------|----------|--------|
|----------|------------|----------|--------|
|-2--------|-(2)--------|----------|--------|
|-2--------|-(2)--------|-2--------|-(2)----|
|-0--------|-(0)--------|-2--------|-(2)----|
|----------|------------|-0--------|-(0)----|


  A5
   H     H       H      H       W          +W
|-------------|--------------|-----------|--------|
|-------------|--------------|-----------|--------|
|-------------|--------------|-----------|--------|
|-/7----/6----|-/7-----/6----|-/4--------|-(4)----|
|-------------|--------------|-----------|--------|
|-------------|--------------|-----------|--------|
|
|  W            +W              W          +W
|-------------|--------------|-----------|--------|
|-------------|--------------|-----------|--------|
|-^2----------|-(2)----------|-^2--------|-(2)----|
|-^2----------|-(2)----------|-^2--------|-(2)----|
|-^0----------|-(0)----------|-^0--------|-(0)----|
|-------------|--------------|-----------|--------|


  A5                             A5
   H    H        H       H         H     H       H     H
|------------|-(12)----(14)----|-(16)---------|------------|
|------------|-----------------|--------------|------------|
|------------|-----------------|--------------|------------|
|------------|-----------------|--------------|------------|
|-/7----6----|---7-------6-----|---7-----6----|--4-----2---|
|------------|-----------------|--------------|------------|
|                H       H         W
|
|  W            +W                 W            +W
|------------|-----------------|--------------|------------|
|------------|-----------------|--------------|------------|
|------------|-----------------|---2----------|------------|
|--2---------|--(2)------------|---2----------|-(2)--------|
|--0---------|--(0)------------|---0----------|-(0)--------|
|------------|-----------------|--------------|------------|


  A5                           E5                    C#m
   H     H       H      H       W           +W
|-12----11----|--9-----11----|-----------|-------------|
|-------------|--------------|-12--------|-(12)--------|
|-------------|--------------|-----------|-------------|
|-------------|--------------|-----------|-------------|
|--7-----9----|-11------7----|--6--------|--(6)--------|
|-------------|--------------|-----------|-------------|
|  H     H       H      H       W           +W
|
|  W            +W              W           +H.      Q
|-------------|--------------|-----------|-------------|
|-------------|--------------|-----------|-------------|
|-------------|--------------|-----------|-------------|
|--2----------|-(2)----------|--2--------|--(2)------2-|
|--0----------|-(0)----------|--2--------|--(2)------4-|
|-------------|--------------|--0--------|--(0)--------|


  E5                           E5             A5
   H     H       W              H      H        H       H
|-12----------|-12-------14--|-16-----------|-(16)----------|
|-------------|--------------|--------------|---------------|
|-------------|--------------|--------------|---------------|
|-------------|--------------|--------------|---------------|
|-/7----/9----|--6-------/7s=|==9----/11----|-/12-----/14---|
|-------------|--------------|--------------|---------------|
|  W             H.       Q     W              +W
|
|  W            +W              W               W
|-------------|--------------|--------------|---------------|
|-------------|--------------|--------------|---------------|
|-------------|--------------|--------------|---------------|
|--2----------|-(2)----------|--2-----------|---2-----------|
|--2----------|-(2)----------|--2-----------|---0-----------|
|--0----------|-(0)----------|--0-----------|---------------|
                                                W


  A5
   W             W
|-12----14----|-16-----12----|
|-------------|-16-----------|
|-------------|--------------|
|-------------|--------------|
|--7----------|--------------|
|-------------|--------------|
|  H     H       H      H
|
|  W            +W
|-------------|--------------|
|-------------|--------------|
|--2----------|-(2)----------|
|--2----------|-(2)----------|
|--0----------|-(0)----------|
|-------------|--------------|


                                                 A5
   W                                             H    Q  Q
|-11-------------------------------------------|-----------|
|----------------------------------------------|-----------|
|----------------------------------------------|------9--8-|
|----------------------------------------------|-----------|
|----------------------------------------------|-----------|
|----------------------------------------------|-----------|
|
|  >
|  E   +E    +E    +E    +E    +E    +E    +E    W
|----------------------------------------------|-----------|
|----------------------------------------------|-----------|
|----------------------------------------------|-2---------|
|----------------------------------------------|-2---------|
|--7b9r(7)b9r(7)b9r(7)b9r(7)b9r(7)b9r(7)b9r(7)-|-0---------|
|----------------------------------------------|-----------|


  A5
   W           +W           H    H       H    H
|-12--------|-(12)--------|-----------|-----------|
|-----------|-------------|-----------|-----------|
|-----------|-------------|-9----8----|-----------|
|-----------|-------------|-----------|-11----9---|
|-----------|-------------|-----------|-----------|
|-----------|-------------|-----------|-----------|
|
|  W           +W           W            W
|-----------|-------------|-----------|-----------|
|-----------|-------------|-----------|-----------|
|-----------|-------------|-----------|-----------|
|--2--------|--(2)--------|-----------|-----------|
|--0--------|--(0)--------|-----------|-----------|
|-----------|-------------|-----------|-----------|


  Esus4/A
   W          +W           +W           +W
|-----------|------------|------------|--------*|
|-----------|------------|------------|--------*|
|-----------|------------|------------|--------*|
|--7--------|-(7)--------|-(7)--------|-(7)----*|
|-----------|------------|------------|--------*|
|-----------|------------|------------|--------*|
|
|  W          +W           +W           +W
|-^0--------|-(0)--------|-(0)--------|-(0)----*|
|-^0--------|-(0)--------|-(0)--------|-(0)----*|
|-^2--------|-(2)--------|-(2)--------|-(2)----*|
|-^2--------|-(2)--------|-(2)--------|-(2)----*|
|-^0--------|-(0)--------|-(0)--------|-(0)----*|
|-----------|------------|------------|--------*|


 

Duration Legend
---------------
W - whole; H - half; Q - quarter; E - 8th; S - 16th; T - 32nd; X - 64th; a - acciaccatura
+ - note tied to previous; . - note dotted; .. - note double dotted
Uncapitalized letters represent notes that are staccato (1/2 duration)
Irregular groupings are notated above the duration line
Duration letters will always appear directly above the note/fret number it represents the
duration for.  Duration letters with no fret number below them represent rests.  Multi-
bar rests are notated in the form Wxn, where n is the number of bars to rest for.  Low
melody durations appear below the staff

Tablature Legend
----------------
 h   - hammer-on
 p   - pull-off
 b   - bend
 pb  - pre-bend
 r   - bend release (if no number after the r, then release immediately)
 /\  - slide into or out of (from/to "nowhere")
 s   - legato slide
 S   - shift slide
 - natural harmonic
[n]  - artificial harmonic
n(n) - tapped harmonic
 ~   - vibrato
 tr  - trill
 T   - tap
 TP  - trem. picking
 PM  - palm muting
\n/  - tremolo bar dip; n = amount to dip
 \n  - tremolo bar down
 n/  - tremolo bar up
/n\  - tremolo bar inverted dip
 =   - hold bend; also acts as connecting device for hammers/pulls
 <> - volume swell (louder/softer)
 x   - on rhythm slash represents muted slash
 o   - on rhythm slash represents single note slash

Misc Legend
-----------
 |  - bar
||  - double bar
||o - repeat start
o|| - repeat end
*|  - double bar (ending)
 :  - bar (freetime)
 $  - Segno
 &  - Coda
Tempo markers -  = BPM(8/16=s8/s16), where s8 = swing 8ths, s16 = swing 16ths

 
** Generated using Power Tab Editor by Brad Larsen: The Official Power Tab Web Site

            
            
Suggest correction
Creating personal tab
Creating personal tab
You can edit any tab online and save it as your Personal.

You can edit, replace or remove any tab part or add personal notes – all changes will be seen only by you.

Personal tabs can be accessed anytime from any device, even offline.
Learn more »
Give kudos to tab author, rate the tab!
1 2 3 4 5
comments
print report bad tab
5 comments total. Showing first comments.
0 reply
myownenemy 47 Feb 17, 2012 07:43 PM

Only one problem. It's in 6/8, not 3/4

0 reply
TFKfan365 52 Jun 29, 2014 05:11 PM

Lack of formatting.

0 reply
TFKfan365 52 Jun 29, 2014 05:13 PM

The Formatting is terrible. For a shorter song, this may have worked. But this is a 8 minute rock epic.

guest
You may want to rate the tab now too:
select rating
Wanna post a correction for this tab? Suggest correction