Oops, an error
Loading. Please wait.

Godspeed bass

version 1
version 1

Whole song

Interactive

5,758 views 1 this week
3 commentsread comments
1 2 3 4 5
x 5
add to favorites
×
Save as Personal and add changes to this tab that will be seen only by you. Learn more ›
×
You can save this tab as Personal to edit and correct it or add notes. All changes will be seen only by you. Learn more »
launch autoscroll
font size
0
reset
guitar tuner
edit
Autoscroll
slow
fast
+/-
esc
set tempo
stop
Difficulty
Band: Anberlin
Song: Godspeed
Tuning: CGCF Low To High
Tabber: Abram[Jack]

Intro
F|---------------|
C|---------------|
G|-------------3-|
C|-0-3-8-10--0---|  (2X)

Verse 1
F|-----------|
C|-----------|
G|------3-1--|
C|-0-0-------|

Pre-Chorus
F|---------------------|
C|---------------------|
G|-----------3--1------|
C|-0-3-8-10-------0-0--|

Chorus
F|--------------|
C|--------------|
G|------------3-|
C|-0-3-8-10-0---| (2X)

Verse 2
F|-------------------|
C|-------------------|
G|---3-3---------3-1-|
C|-0-----0-0-0-------|

F|-----------|
C|-----------|
G|-------3-1-|
C|-0-0-0-----|

Pre-Chorus
Chorus

Bridge
F|---------------|
C|---------------|
G|---------------|
C|-8-10-0-3-8-10-|

G|---3-
C|-0---

G|----------|
C|-0-3-8-10-| (2X)
Once with the music
and the other without
the music just the Bass...

            
            
Suggest correction
Creating personal tab
Creating personal tab
You can edit any tab online and save it as your Personal.

You can edit, replace or remove any tab part or add personal notes – all changes will be seen only by you.

Personal tabs can be accessed anytime from any device, even offline.
Learn more »
comments
print report bad tab
3 comments total.
+2 reply
Gawernator 42 Feb 18, 2008 12:49 PM

only the chorus was close..

+1 reply
Preffer 10 Feb 21, 2008 06:55 AM

♥ It's a good song, that's all I have to say...

0 reply
jesuspunk777 145 Mar 25, 2009 11:35 AM

UH...YEAH WHAT THEY SAID

guest
Wanna post a correction for this tab? Suggest correction