Oops, an error
Loading. Please wait.

Impossible Tab

version 1
version 1

Whole song

Interactive

14,666 views 1 this week
no commentswrite comment
1 2 3 4 5
x 7
add to favorites
launch autoscroll
font size
0
reset
how to read this tab
guitar tuner
Autoscroll
slow
fast
+/-
esc
set tempo
stop
Help us to improve Ultimate-Guitar.com Take our survey!
×
Intro
Lead (Tremelo Effect.  If don't have anything to give the
effect, tremelo pick it.)
e-00000000----------------------------|
b----------33333333-22222222----------|
g----------------------------22222222-|
d-------------------------------------|
a-------------------------------------|
d-------------------------------------|

Rhythm
e-------------------|
b-------------------|
g-------------------|
d-11~--9~--5~--11~--|
a--9~--9~--5~---9~--|
d--0~--9~--5~---0~--|

Verse
Rhythm (palm mute)
e-------------------------------------------------------------|
b-------------------------------------------------------------|
g-------------------------------------------------------------|
d-11-11-11-11-11-11-11-11-11-11-11-11-9-9-9-9-9-9-9-9-9-9-9-9-|
a--9--9--9--9--9--9--9--9--9--9--9--9-9-9-9-9-9-9-9-9-9-9-9-9-|
d--0--0--0--0--0--0--0--0--0--0--0--0-9-9-9-9-9-9-9-9-9-9-9-9-|

e--------------------------------------------------------------|
b--------------------------------------------------------------|
g--------------------------------------------------------------|
d-5-5-5-5-5-5-5-5-5-5-5-11-11-11-11-11-11-11-11-11-11-11-11-11-|
a-5-5-5-5-5-5-5-5-5-5-5--9--9--9--9--9--9--9--9--9--9--9--9--9-|
d-5-5-5-5-5-5-5-5-5-5-5--0--0--0--0--0--0--0--0--0--0--0--0--0-|

Lead (Very faint compared to rhythm.  Might not be
accurate, but I like playing it this way)
        4x               4x              4x          Until Chorus
e|---------101010-|---------------|---------------|---------101010-|
b|----------------|--------101010-|---------------|----------------|
g|-99-1111--------|-99-1111-------|-----99-111111-|-99-1111--------|
d|----------------|---------------|-1212----------|----------------|
a|----------------|---------------|---------------|----------------|
d|----------------|---------------|---------------|----------------|

Chorus
Rhythm
e-------------------------------------------------------------|
b-------------------------------------------------------------|
g-------------------------------------------------------------|
d-11-11-11-11-11-11-11-11-11-11-11-11-9-9-9-9-9-9-9-9-9-9-9-9-|
a--9--9--9--9--9--9--9--9--9--9--9--9-9-9-9-9-9-9-9-9-9-9-9-9-|
d--0--0--0--0--0--0--0--0--0--0--0--0-9-9-9-9-9-9-9-9-9-9-9-9-|

e-------------------------------------------------------------|
b-------------------------------------------------------------|
g-------------------------------------------------------------|
d-5-5-5-5-5-5-5-5-5-5-5-5-11-11-11-11-11-11-11-11-11-11-11-11-|
a-5-5-5-5-5-5-5-5-5-5-5-5--9--9--9--9--9--9--9--9--9--9--9--9-|
d-5-5-5-5-5-5-5-5-5-5-5-5--0--0--0--0--0--0--0--0--0--0--0--0-|

Lead
e-0000----------------|
b------3333-2222------|
g----------------2222-|
d---------------------|
a---------------------|
d---------------------|

Bridge
Lead
e-------------------------------------------------------------------|
b---------555-777-55-77---------555-777-55-77---------555-777-55-77-|
g-666-777---------------444-777-------------------777---------------|
d---------------------------------------------777-------------------|
a-------------------------------------------------------------------|
d-------------------------------------------------------------------|

e-------------------|
b-6b-6b-6b-6b-6-5---|
g-----------------7-|
d-------------------|
a-------------------|
d-------------------|

e---------------------------------------------|
b---------555-777-55-77---------555-777-55-77-|
g-666-777---------------444-777---------------|
d---------------------------------------------|
a---------------------------------------------|
d---------------------------------------------|

e-----------------------------------------|
b-7b-7b-7b-7b-7b-7b-7b-7b-7b-7b--7-5------|
g------------------------------------7-7~-|
d-----------------------------------------|
a-----------------------------------------|
d-----------------------------------------|

Rhythm
e-------------------------------------------------------------|
b-------------------------------------------------------------|
g----------------------------------------777-666--------------|
d-777777777777-999999999999-555555555555-777-666-555-444-55-7-|
a-777777777777-999999999999-555555555555-555-444-555-444-55-7-|
d-777777777777-999999999999-555555555555---------555-444-55-7-|

e------------------------------------------------------------------------|
b------------------------------------------------------------------------|
g------------------------------------------------------------------------|
d-777777777777-999999999999-10-10-10-10-10-10-10-10-10-10-10-10-10-10-10-|
a-777777777777-999999999999-10-10-10-10-10-10-10-10-10-10-10-10-10-10-10-|
d-777777777777-999999999999-10-10-10-10-10-10-10-10-10-10-10-10-10-10-10-|

Chorus

end with
e-2~--|
b-3~--|
g-2~--|
d-0~--|
a-0~--|
d-0~--|
Suggest correction
comments
print report bad tab
guest
You may want to rate the tab now too:
select rating
Wanna post a correction for this tab? Suggest correction