Oops, an error
Loading. Please wait.

Inevitable bass

version 1
version 1

Whole song

Interactive

1,151 views 1 this week
1 commentread comment
1 2 3 4 5
1 last vote to show rating
add to favorites
×
Save as Personal and add changes to this tab that will be seen only by you. Learn more ›
×
You can save this tab as Personal to edit and correct it or add notes. All changes will be seen only by you. Learn more »
launch autoscroll
font size
0
reset
guitar tuner
edit
Autoscroll
slow
fast
+/-
esc
set tempo
stop
Quick disclaimer: This is my first tab, so excuse me if it isn't great. That said, here goes.

NB! If you don't know how to play in Drop D, it's simple. Tune your Open E string 
up until it's a D. To get back, tune down to E again.


Intro

G |-----------------|
D |-----2-------2---|
A |-0-0---0-0-0---0-|
D |-----------------|


Verse

G |--------------------------------------------------------------------|
D |--------------------------------------------------------------------|
A |--------------------------------------------------------------------|
D |-7-7-7-7-7-7-7-7--7-7-7-7-7-7-7-7--4-4-4-4-4-4-4-4--2-2-2-2-2-2-2-2-|


PreChorus

G |--------------------------------------------------------------------|
D |--------------------------------------------------------------------|
A |-----------------------------------4-4-4-4-4-4-4-4--4-4-4-4-4-4-4-4-|
D |-7-7-7-7-7-7-7-7--7-7-7-7-7-7-7-7-----------------------------------|

|--------------------------------------------------------------------|
|--------------------------------------------------------------------|
|-----------------------------------4-4-4-4-4-4-4-4--4-4-4-4-4-4-4-4-|
|-7-7-7-7-7-7-7-7--7-7-7-7-7-7-7-7-----------------------------------|

|----------------------------------|
|----------------------------------|
|-5-5-5-5-5-5-5-5--5-5-5-5-5-7-----|
|------------------------------4-5-|


Chorus

G |--------------------------------------------------------------------|
D |--------------------------------------------------------------------|
A |---------2-2-2-2-4-4-4-4----------2-2-2-2-2-4-4-4-4-2-2-2-2---------|
D |-0-0-0-0------------------0-0-0-0---------------------------0-0-0-0-|

|--------------------------|
|--------------------------|
|--------------------------|
|-0-0-0-0-0-0-0-0--0-0-0-0-|


Bridge

G |--------------------------------------------------------------------------|
D |--------------------------------------------------------------------------|
A |-----------------------------------4-4-4-4--------------------------------|
D |-7-7-7-7-7-7-7-7-7-7-7-7-7-7-7-7----------5-5-5-5-5-5-5-5-3-3-3-3-3-3-3-3|
                (16 notes)

(After third repeat, change to this)

|----------------------------------------------------------------------------|
|----------------------------------------------------------------------------|
|----------------------------------4-4-4-4--5-5-5-5-5-5-5-5--5-5-5-5-5-7-----|
|-7-7-7-7-7-7-7-7-7-7-7-7-7-7-7-7---------------------------------------4-5-|
               (16 notes)


Outro

G |-------|
D |-------|
A |---4---|
D |-2---0-|

Song Order

Intro x 4
Verse
PreChorus
Chorus
Verse
PreChorus
Chorus
Bridge
Chorus (Repeat first half at "I want to be your last first love")
Outro


If you have any critiques, send them to dbcification at gmail dot com.

            
            
Suggest correction
Creating personal tab
Creating personal tab
You can edit any tab online and save it as your Personal.

You can edit, replace or remove any tab part or add personal notes – all changes will be seen only by you.

Personal tabs can be accessed anytime from any device, even offline.
Learn more »
Give kudos to tab author, rate the tab!
1 2 3 4 5
comments
print report bad tab
1 comment total.
0 reply
kenziethomas13 254 Nov 25, 2013 04:11 PM

Nice tab!!

guest
You may want to rate the tab now too:
select rating
Wanna post a correction for this tab? Suggest correction