Oops, an error
Loading. Please wait.

Miserabile Visu tab

version 2
version 2

Whole song

Interactive

593 views 1 this week
no commentswrite comment
1 2 3 4 5
3 more votes to show rating
add to favorites
×
Save as Personal and add changes to this tab that will be seen only by you. Learn more ›
×
You can save this tab as Personal to edit and correct it or add notes. All changes will be seen only by you. Learn more »
launch autoscroll
font size
0
reset
how to read this tab
guitar tuner
edit
Autoscroll
slow
fast
+/-
esc
set tempo
stop
#----------------------------------PLEASE NOTE---------------------------------#
#This file is the author's own work and represents their interpretation of the #
#song. You may only use this file for private study, scholarship, or research. #
#------------------------------------------------------------------------------#
MISERABILE VISU (EX MALO BONUM)
As recorded by Anberlin
(From the 2008 Album NEW SURRENDER)
Transcribed by natuMzzri	Words and Music by Anberlin

F5x x 3 5 x x	F5(type 2)3 3 3 5 x x	G5x x 5 7 x x	G5(type 2)5 5 5 7 x x
Cmx x 10 8 x x	Cm(type 2)10 10 10 8 x x	C#5x 4 6 6 x x	C5/Gx x 5 5 x x
C510 10 10 x x x	G5(type 3)5 5 5 x x x	F5/Bb8 8 10 x x x	G5I5 5 5 x x x
C8 8 8 x x x	F5(type 3)3 3 3 x x x		

Gtr I (D A D G B E) - 'Piano w/ effects'
Gtr II (D A D G B E) - 'Dist. Gtr. 1'
Gtr III (D A D G B E) - 'Dist. Gtr. 2'
Gtr IV (D A D G B E) - 'Clean Piano'
Gtr V (D A D G B E) - 'Clean Gtr.'
Gtr VI (D A D G B E) - 'Bells'
 Intro
  Q=122
  F5                                  G5
 4/4
  Gtr I
  <       <         <       <
  Q   Q   Q   Q     Q   Q   Q   Q     Q   Q   Q   Q     Q   Q   Q   Q
|-----------------|-----------------|-----------------|-----------------|
|-----------------|-----------------|-----------------|-----------------|
|-5-------5-------|-5-------5-------|-7-------7-------|-7-------7-------|
|-3-------3-------|-3-------3-------|-5-------5-------|-5-------5-------|
|-----------------|-----------------|-----------------|-----------------|
|----(3)-----(3)--|----(3)-----(3)--|----(5)-----(5)--|----(5)-----(5)--|
|
| Gtr V
| W                 W                 W                 W
|-----------------|-----------------|-----------------|-----------------|
|-----------------|-----------------|-----------------|-----------------|
|-----------------|-----------------|-----------------|-----------------|
|-----------------|-----------------|-----------------|-----------------|
|-----------------|-----------------|-----------------|-----------------|
|-----------------|-----------------|-----------------|-----------------|


  Cm
   Q    Q    Q    Q      Q    Q    Q    Q
|---------------------|---------------------|
|---------------------|---------------------|
|--8---------8--------|--8---------8--------|
|-10--------10--------|-10--------10--------|
|---------------------|---------------------|
|-----(10)------(10)--|-----(10)------(10)--|
|
|  W                     W
|---------------------|---------------------|
|---------------------|---------------------|
|---------------------|---------------------|
|---------------------|---------------------|
|---------------------|---------------------|
|---------------------|---------------------|


  G5
  Q     Q    Q    Q      Q    Q    Q    Q
|---------------------|--------------------|
|---------------------|--------------------|
|-7----------7--------|--7---------7-------|
|-5----------5--------|--5---------5-------|
|---------------------|--------------------|
|------(5)-------(5)--|------(5)-------(5)-|
|
| Q    +Q   +Q   +Q     +Q   +Q   +Q   +Q
|---------------------|--------------------|
|---------------------|--------------------|
|-7b9--(7)--(7)--(7)--|-(7)--(7)--(7)--(7)-|
|---------------------|--------------------|
|---------------------|--------------------|
|---------------------|--------------------|


   Verse
    F5
     <         <           <         <
     Q    Q    Q    Q      Q    Q    Q    Q
||----------------------|---------------------|
||o---------------------|---------------------|
||---5---------5--------|--5---------5--------|
||---3---------3--------|--3---------3--------|
||o---------------------|---------------------|
||-------(3)-------(3)--|------(3)-------(3)--|
|
|    Q    Q    Q    Q      Q    Q    Q    Q
||----------------------|---------------------|
||o-(8)-------(8)-------|-(8)-------(8)-------|
||-------(5)-------(5)--|------(5)--------5---|
||----------------------|---------------------|
||o---------------------|---------------------|
||----------------------|---------------------|


  G5
    Q    Q     Q    Q       Q    Q     Q    Q
|-----------------------|---------------------------|
|-----------------------|---------------------------|
|---7----------7--------|---7----------7------------|
|---5----------5--------|---5----------5------------|
|-----------------------|---------------------------|
|-------(5)--------(5)--|-------(5)--------(5)------|
|
|   Q    Q     Q    Q       Q    Q     Q    E    E
|-----------------------|---------------------------|
|-(11)-------(11)-------|-(11)-------(11)------(11)-|
|-------(7)--------(7)--|-------(7)--------(7)------|
|-----------------------|---------------------------|
|-----------------------|---------------------------|
|-----------------------|---------------------------|


  Cm
    Q     Q     Q     Q       Q     Q     Q     Q
|-------------------------|-------------------------|
|-------------------------|-------------------------|
|---8-----------8---------|---8-----------8---------|
|--10----------10---------|--10----------10---------|
|-------------------------|-------------------------|
|-------(10)--------(10)--|-------(10)--------(10)--|
|
|   Q     Q     Q     Q       Q     Q     Q     Q
|-------------------------|-------------------------|
|-(13)--------(13)--------|-(13)--------(13)--------|
|-------(12)--------(12)--|-------(12)--------(12)--|
|-------------------------|-------------------------|
|-------------------------|-------------------------|
|-------------------------|-------------------------|


  G5
    Q    Q     Q    Q       Q    Q     Q    Q
|-----------------------|-----------------------||
|-----------------------|----------------------o||
|---7----------7--------|---7----------7--------||
|---5----------5--------|---5----------5--------||
|-----------------------|----------------------o||
|-------(5)--------(5)--|-------(5)--------(5)--||
|
|   Q    Q     Q    Q       Q    Q     Q    Q
|-----------------------|-----------------------||
|-(11)-------(11)-------|-(11)-------(11)------o||
|-------(7)--------(7)--|-------(7)--------(7)--||
|-----------------------|-----------------------||
|-----------------------|----------------------o||
|-----------------------|-----------------------||


  F5
   <         <            <         <
   Q    Q    Q    Q       Q    Q    Q    Q
|---------------------|----------------------|
|---------------------|----------------------|
|--5---------5--------|---5---------5--------|
|--3---------3--------|---3---------3--------|
|---------------------|----------------------|
|------(3)-------(3)--|-------(3)-------(3)--|
|
|  Q    Q    Q    Q       Q    Q    Q    Q
|---------------------|----------------------|
|-(8)-------(8)-------|--(8)-------(8)-------|
|------(5)-------(5)--|-------(5)--------5---|
|---------------------|----------------------|
|---------------------|----------------------|
|---------------------|----------------------|
|
| Gtr VI
|  W                     +H         H
|---------------------|------------11--------|
|-13------------------|-(13)-------13--------|
|---------------------|----------------------|
|---------------------|----------------------|
|---------------------|----------------------|
|---------------------|----------------------|


  G5
    Q    Q     Q    Q       Q    Q     Q    Q
|-----------------------|----------------------------|
|-----------------------|----------------------------|
|---7----------7--------|---7----------7-------------|
|---5----------5--------|---5----------5-------------|
|-----------------------|----------------------------|
|-------(5)--------(5)--|-------(5)--------(5)-------|
|
|   Q    Q     Q    Q       Q    Q     Q    E    E
|-----------------------|----------------------------|
|-(11)-------(11)-------|-(11)-------(11)------(11)--|
|-------(7)--------(7)--|-------(7)--------(7)-------|
|-----------------------|----------------------------|
|-----------------------|----------------------------|
|-----------------------|----------------------------|
|
|   W                      +H          H
|--10-------------------|-(10)-----------------------|
|--13-------------------|-(13)--------11-------------|
|-----------------------|----------------------------|
|-----------------------|----------------------------|
|-----------------------|----------------------------|
|-----------------------|----------------------------|


  Cm
    Q     Q     Q     Q       Q     Q     Q     Q
|-------------------------|-------------------------|
|-------------------------|-------------------------|
|---8-----------8---------|---8-----------8---------|
|--10----------10---------|--10----------10---------|
|-------------------------|-------------------------|
|-------(10)--------(10)--|-------(10)--------(10)--|
|
|   Q     Q     Q     Q       Q     Q     Q     Q
|-------------------------|-------------------------|
|-(13)--------(13)--------|-(13)--------(13)--------|
|-------(12)--------(12)--|-------(12)--------(12)--|
|-------------------------|-------------------------|
|-------------------------|-------------------------|
|-------------------------|-------------------------|
|
|   W                        +H           H
|-------------------------|-------------------------|
|--13---------------------|-(13)---------13---------|
|-------------------------|-------------------------|
|-------------------------|-------------------------|
|-------------------------|-------------------------|
|-------------------------|-------------------------|


  G5
    Q    Q     Q    Q       Q    Q     Q    Q
|-----------------------|----------------------||
|-----------------------|----------------------||
|---7----------7--------|---7----------7-------||
|---5----------5--------|---5----------5-------||
|-----------------------|----------------------||
|-------(5)--------(5)--|-------(5)--------(5)-||
|
|   Q    Q     Q    Q       Q    Q     Q    Q
|-----------------------|----------------------||
|-(11)-------(11)-------|-(11)-------(11)------||
|-------(7)--------(7)--|-------(7)--------(7)-||
|-----------------------|----------------------||
|-----------------------|----------------------||
|-----------------------|----------------------||
|
|   W                      +W
|-----------------------|----------------------||
|--11-------------------|-(11)-----------------||
|-----------------------|----------------------||
|-----------------------|----------------------||
|-----------------------|----------------------||
|-----------------------|----------------------||


 Pre-Chorus
  F5                          G5
  Gtr II
  Q  Q  Q  Q    Q  Q  Q  Q    Q  Q  Q  Q    Q  Q  Q  Q
|-------------|-------------|-------------|------------|
|-------------|-------------|-------------|------------|
|-5-----5-----|-5-----5-----|-7-----7-----|-7-----7----|
|-3-----3-----|-3-----3-----|-5-----5-----|-5-----5----|
|-3--3--3--3--|-3--3--3--3--|-5--5--5--5--|-5--5--5--5-|
|-3--3--3--3--|-3--3--3--3--|-5--5--5--5--|-5--5--5--5-|
|
| Gtr IV
| W             W             W             W
|-------------|-------------|-------------|------------|
|-------------|-------------|-------------|------------|
|-------------|-------------|-------------|------------|
|-------------|-------------|-------------|------------|
|-------------|-------------|-------------|------------|
|-------------|-------------|-------------|------------|


                                      Chorus
  Cm                                   C5
   Q   Q   Q   Q     Q   Q   Q   Q     Q  H.          W
|-----------------|-----------------||--------------|----------------|
|-----------------|-----------------||--------------|----------------|
|--8-------8------|--8-------8------||-5------------|----------------|
|-10------10------|-10------10------||-5------------|----------------|
|-10--10--10--10--|-10--10--10--10--||-3------------|----------------|
|-10--10--10--10--|-10--10--10--10--||--------------|----------------|
|
|  W                 W                 Q  Q   Q  Q    Q   Q  Q  Q
|-----------------|-----------------||--------------|-----------6-5--|
|-----------------|-----------------||--------------|----------------|
|-----------------|-----------------||-5------5-----|-5------5-------|
|-----------------|-----------------||-5------5-----|-5------5-------|
|-----------------|-----------------||----3------3--|-----3-----3----|
|-----------------|-----------------||--------------|----------------|
                                                      H.        E E


  Bb/G                          Fsus4
  Gtr IV
  Q  Q  Q  Q    Q   Q  Q  Q     Q  Q  Q  Q    Q   Q  Q  Q
|-6-----------|-----------6-5-|-6-----------|-----------6-|
|-------------|---------------|-------------|-------------|
|-7-----7-----|-7------7------|-5-----5-----|-5------5----|
|-5-----5-----|-5------5------|-3-----3-----|-3------3----|
|-------------|---------------|-------------|-------------|
|----5-----5--|-----5-----5---|----3-----3--|-----3-----3-|
  W             H.        E E   W             H.        Q


  C5/G
  Q  Q  Q  Q    Q  Q  Q  Q    Q  Q  Q  Q    Q   Q  Q  Q
|-------------|-------------|-------------|-----------6-5--|
|-8-----------|-------------|-------------|----------------|
|-5-----5-----|-5-----5-----|-5-----5-----|-5------5-------|
|-5-----5-----|-5-----5-----|-5-----5-----|-5------5-------|
|----3-----3--|----3-----3--|----3-----3--|-----3-----3----|
|-------------|-------------|-------------|----------------|
  W             W             W             H.        E E


  Bb/G                          Fsus4
  Q  Q  Q  Q    Q   Q  Q  Q     Q  Q  Q  Q    Q   Q  Q  Q
|-6-----------|-----------6-5-|-6-----------|-----------6-|
|-------------|---------------|-------------|-------------|
|-7-----7-----|-7------7------|-5-----5-----|-5------5----|
|-5-----5-----|-5------5------|-3-----3-----|-3------3----|
|-------------|---------------|-------------|-------------|
|----5-----5--|-----5-----5---|----3-----3--|-----3-----3-|
  W             H.        E E   W             H.        Q


  C5/G
  Q  Q  Q  Q    Q  Q  Q  Q
|-------------|------------||
|-8-----------|------------||
|-5-----5-----|-5-----5----||
|-5-----5-----|-5-----5----||
|----3-----3--|----3-----3-||
|-------------|------------||
  W             W


   Verse
    F5                                  G5
    Gtr I
    <       <         <       <
    Q   Q   Q   Q     Q   Q   Q   Q     Q   Q   Q   Q     Q   Q   Q   Q
||------------------|-----------------|-----------------|-----------------|
||o-----------------|-----------------|-----------------|-----------------|
||--5-------5-------|-5-------5-------|-7-------7-------|-7-------7-------|
||--3-------3-------|-3-------3-------|-5-------5-------|-5-------5-------|
||o-----------------|-----------------|-----------------|-----------------|
||-----(3)-----(3)--|----(3)-----(3)--|----(5)-----(5)--|----(5)-----(5)--|


  Cm
   Q    Q    Q    Q      Q    Q    Q    Q
|---------------------|---------------------|
|---------------------|---------------------|
|--8---------8--------|--8---------8--------|
|-10--------10--------|-10--------10--------|
|---------------------|---------------------|
|-----(10)------(10)--|-----(10)------(10)--|


  G5
  Q   Q   Q   Q     Q   Q   Q   Q   3x
|-----------------|-----------------||
|-----------------|----------------o||
|-7-------7-------|-7-------7-------||
|-5-------5-------|-5-------5-------||
|-----------------|----------------o||
|----(5)-----(5)--|----(5)-----(5)--||


  F5
   <       <           <         <
   Q   Q   Q   Q       Q    Q    Q   Q
|------------------|---------------------|
|------------------|---------------------|
|--5-------5-------|---5---------5-------|
|--3-------3-------|---3---------3-------|
|------------------|---------------------|
|-----(3)-----(3)--|-------(3)------(3)--|
|
| Gtr VI
|  W                  +H         H
|------------------|------------11-------|
|-13---------------|-(13)-------13-------|
|------------------|---------------------|
|------------------|---------------------|
|------------------|---------------------|
|------------------|---------------------|


  G5
   Q   Q   Q   Q       Q    Q    Q   Q
|------------------|--------------------|
|------------------|--------------------|
|--7-------7-------|---7---------7------|
|--5-------5-------|---5---------5------|
|------------------|--------------------|
|-----(5)-----(5)--|-------(5)------(5)-|
|
|  W                  +H         H
|-10---------------|-(10)---------------|
|-13---------------|-(13)-------11------|
|------------------|--------------------|
|------------------|--------------------|
|------------------|--------------------|
|------------------|--------------------|


  Cm
   Q    Q    Q    Q       Q     Q    Q    Q
|---------------------|-----------------------|
|---------------------|-----------------------|
|--8---------8--------|---8----------8--------|
|-10--------10--------|--10---------10--------|
|---------------------|-----------------------|
|-----(10)------(10)--|-------(10)------(10)--|
|
|  W                     +H          H
|---------------------|-----------------------|
|-13------------------|-(13)--------13--------|
|---------------------|-----------------------|
|---------------------|-----------------------|
|---------------------|-----------------------|
|---------------------|-----------------------|


  G5
   Q   Q   Q   Q           Q    Q   Q   Q
|----------------------|-------------------||
|----------------------|-------------------||
|--7-------7-----------|---7--------7------||
|--5-------5-----------|---5--------5------||
|----------------------|-------------------||
|-----(5)-----(5)------|-------(5)-----(5)-||
|
|  W                      +W
|----------------------|-------------------||
|-11-------------------|-(11)--------------||
|----------------------|-------------------||
|----------------------|-------------------||
|----------------------|-------------------||
|----------------------|-------------------||


 Pre-Chorus
  F5                          G5
  Gtr II
  Q  Q  Q  Q    Q  Q  Q  Q    Q  Q  Q  Q    Q  Q  Q  Q
|-------------|-------------|-------------|------------|
|-------------|-------------|-------------|------------|
|-5-----5-----|-5-----5-----|-7-----7-----|-7-----7----|
|-3-----3-----|-3-----3-----|-5-----5-----|-5-----5----|
|-3--3--3--3--|-3--3--3--3--|-5--5--5--5--|-5--5--5--5-|
|-3--3--3--3--|-3--3--3--3--|-5--5--5--5--|-5--5--5--5-|


  Cm                        G5
   Q   Q   Q   Q     Q   Q  Q  Q
|-----------------|---------------|
|-----------------|---------------|
|--8-------8------|--8------7-----|
|-10------10------|-10------5-----|
|-10--10--10--10--|-10--10--5--5--|
|-10--10--10--10--|-10--10--5--5--|
|
| Gtr III
|  W                 W
|-----------------|---------------|
|-----------------|---------------|
|-----------------|---------------|
|-----------------|---------------|
|-----------------|---------------|
|-----------------|---------------|


   Chorus
    C5
     E  E  E  E  E  E  E  E    E  E  E  E  E  E  E  E
||--------------------------|--------------------------|
||o-------------------------|--------------------------|
||--17-17-17-17-17-17-17-17-|-17-17-17-17-17-17-17-14--|
||--------------------------|--------------------------|
||o-15-15-15-15-15-15-15-15-|-15-15-15-15-15-15-15-12--|
||--------------------------|--------------------------|
|
|    H           H             H           H
||--------------------------|--------------------------|
||o-------------------------|--------------------------|
||--------------------------|--------------------------|
||--10----------10----------|-10----------10-----------|
||o-10----------10----------|-10----------10-----------|
||--10----------10----------|-10----------10-----------|


  G5
   E  E  E  E  E  E  E  E    E  E  E  E  E  E  E  E
|-------------------------|-------------------------|
|-------------------------|-------------------------|
|-15-15-15-15-15-15-15-15-|-15-15-15-15-15-15-15-14-|
|-------------------------|-------------------------|
|-13-13-13-13-13-13-13-13-|-13-13-13-13-13-13-13-12-|
|-------------------------|-------------------------|
|
|  H           H             H           H
|-------------------------|-------------------------|
|-------------------------|-------------------------|
|-------------------------|-------------------------|
|--5-----------5----------|--5-----------5----------|
|--5-----------5----------|--5-----------5----------|
|--5-----------5----------|--5-----------5----------|


  F5/Bb
   E  E  E  E  E  E  E  E    E  E  E  E  E  E  E  E
|-------------------------|--------------------------|
|-------------------------|--------------------------|
|-15-15-15-15-15-15-15-15-|-15-15-15-15-15-15-15-14--|
|-------------------------|--------------------------|
|-13-13-13-13-13-13-13-13-|-13-13-13-13-13-13-13-12--|
|-------------------------|--------------------------|
|
|  H           H             H           H
|-------------------------|--------------------------|
|-------------------------|--------------------------|
|-------------------------|--------------------------|
|-10----------10----------|-10----------10-----------|
|--8-----------8----------|--8-----------8-----------|
|--8-----------8----------|--8-----------8-----------|


  C5
   E  E  E  E  E  E  E  E
|-------------------------|
|-------------------------|
|-12-12-12-12-12-12-12-12-|
|-------------------------|
|-10-10-10-10-10-10-10-10-|
|-------------------------|
|
|  H           H
|-------------------------|
|-------------------------|
|-------------------------|
|-10----------10----------|
|-10----------10----------|
|-10----------10----------|


 1.                             2.
   E     E  E  E  E  E  E  E      E  E  E  E  E  E  E  E
|-----------------------------||-------------------------||
|-15b17-15-15-15-15-15-15-15-o||-------------------------||
|-12----12-12-12-12-12-12-12--||-12-12-12-12-12-12-12-12-||
|-----------------------------||-------------------------||
|-10----10-10-10-10-10-10-10-o||-10-10-10-10-10-10-10-10-||
|-----------------------------||-------------------------||
|
|  H              H               H           H
|-----------------------------||-------------------------||
|----------------------------o||-------------------------||
|-----------------------------||-------------------------||
|-10-------------10-----------||-10----------10----------||
|-10-------------10----------o||-10----------10----------||
|-10-------------10-----------||-10----------10----------||


 Bridge
  G#5
  E E  E E  E E  E E   E E  E E  E E  E E
|--------------------|--------------------|
|--------------------|--------------------|
|-8-7--------------7-|-8-7--------------7-|
|-----10-8----8-10---|-----10-8----8-10---|
|----------10--------|----------10--------|
|--------------------|--------------------|
|
| Q    Q    Q    Q     Q    Q    Q    Q
|--------------------|--------------------|
|--------------------|--------------------|
|--------------------|--------------------|
|-6----6----6----6---|-6----6----6----6---|
|-6----6----6----6---|-6----6----6----6---|
|-6----6----6----6---|-6----6----6----6---|


  Bb5
  E E  E E  E E  E  E   E E  E E  E E  E  E
|---------------------|----------------------|
|---------------------|----------------------|
|-8-7-----------------|-8-7------------------|
|-----10-8------------|-----10-8-------------|
|----------10-8-------|----------10-8--------|
|---------------12-10-|---------------12-10--|
|
| Q    Q    Q    Q      Q    Q    Q    Q
|---------------------|----------------------|
|---------------------|----------------------|
|---------------------|----------------------|
|-8----8----8----8----|-8----8----8----8-----|
|-8----8----8----8----|-8----8----8----8-----|
|-8----8----8----8----|-8----8----8----8-----|


  G#5
  E E  E E  E E  E E   E E  E E  E E  E E
|--------------------|--------------------|
|--------------------|--------------------|
|-8-7--------------7-|-8-7--------------7-|
|-----10-8----8-10---|-----10-8----8-10---|
|----------10--------|----------10--------|
|--------------------|--------------------|
|
| Q    Q    Q    Q     Q    Q    Q    Q
|--------------------|--------------------|
|--------------------|--------------------|
|--------------------|--------------------|
|-6----6----6----6---|-6----6----6----6---|
|-6----6----6----6---|-6----6----6----6---|
|-6----6----6----6---|-6----6----6----6---|


  C5
   E E  E E  E E  E  E    E E  E E  E E  E  E
|----------------------|-----------------------|
|----------------------|-----------------------|
|--8-7-----------------|--8-7------------------|
|------10-8------------|------10-8-------------|
|-----------10-8-------|-----------10-8--------|
|----------------12-10-|----------------12-10--|
|
|  Q    Q    Q    Q       Q    Q    Q    Q
|----------------------|-----------------------|
|----------------------|-----------------------|
|----------------------|-----------------------|
|-10---10---10---10----|-10---10---10---10-----|
|-10---10---10---10----|-10---10---10---10-----|
|-10---10---10---10----|-10---10---10---10-----|


  G#5
  E E  E E  E E  E E   E E  E E  E E  E E
|--------------------|--------------------|
|--------------------|--------------------|
|-8-7--------------7-|-8-7--------------7-|
|-----10-8----8-10---|-----10-8----8-10---|
|----------10--------|----------10--------|
|--------------------|--------------------|
|
| Q    Q    Q    Q     Q    Q    Q    Q
|--------------------|--------------------|
|--------------------|--------------------|
|--------------------|--------------------|
|-6----6----6----6---|-6----6----6----6---|
|-6----6----6----6---|-6----6----6----6---|
|-6----6----6----6---|-6----6----6----6---|


  Bb5
  E E E E E  E  E E   E E E E E E E E
|-------------------|------------------|
|-4-4-4-8-8-11-11-8-|-8-8-4-4-4-4-4-4--|
|-------------------|------------------|
|-------------------|------------------|
|-------------------|------------------|
|-------------------|------------------|
|
| Q   Q   Q     Q     Q   Q   Q   Q
|-------------------|------------------|
|-------------------|------------------|
|-------------------|------------------|
|-8---8---8-----8---|-8---8---8---8----|
|-8---8---8-----8---|-8---8---8---8----|
|-8---8---8-----8---|-8---8---8---8----|


  G#5
  E E E E E E E E   E E E E E E E E
|-----------------|-----------------|
|-----------------|-----------------|
|-5-5-5-5-5-5-5-5-|-7-7-7-7-7-7-7-7-|
|-----------------|-----------------|
|-----------------|-----------------|
|-----------------|-----------------|
|
| Q   Q   Q   Q     Q   Q   Q   Q
|-----------------|-----------------|
|-----------------|-----------------|
|-----------------|-----------------|
|-6---6---6---6---|-8---8---8---8---|
|-6---6---6---6---|-8---8---8---8---|
|-6---6---6---6---|-8---8---8---8---|


  C5
   E  E  E  E  E  E  E  E    E  E  E  E  E  E  E  E
|-10-10-10-10-10-10-10-10-|-10-10-10-10-10-10-10-10--||
|-------------------------|--------------------------||
|-------------------------|--------------------------||
|-------------------------|--------------------------||
|-------------------------|--------------------------||
|-------------------------|--------------------------||
|
|  Q     Q     Q     Q       Q     Q     Q     Q
|-------------------------|--------------------------||
|-------------------------|--------------------------||
|-------------------------|--------------------------||
|-10----10----10----10----|-10----10----10----10-----||
|-10----10----10----10----|-10----10----10----10-----||
|-10----10----10----10----|-10----10----10----10-----||


 Guitar Solo
  Bb5
   |--4:3---|     |--4:3---|     |--4:3---|     |--4:3---|
   S  S  S  S  S  S  S  S  S  S  S  S  S  S  S  S  S  S  S  S
|-11-11-13-11----13-11-13-11----13-11-13-11----13-11-13-11----|
|-------------11-------------11-------------11-------------11-|
|-------------------------------------------------------------|
|-------------------------------------------------------------|
|-------------------------------------------------------------|
|-------------------------------------------------------------|
|
|  Q              Q              Q              Q
|-------------------------------------------------------------|
|-------------------------------------------------------------|
|-------------------------------------------------------------|
|--8--------------8--------------8--------------8-------------|
|--8--------------8--------------8--------------8-------------|
|--8--------------8--------------8--------------8-------------|


                                                      G5
                                                       TP     TP       TP     TP
   |--4:3---|     |--4:3---|     |--4:3---|
   S  S  S  S  S  S  S  S  S  S  S  S  S  S  Q    S    H      H        H      H
|-11-11-13-11----13-11-13-11----13-11-13-11---------|--------20-----|-22-----23-------|
|-------------11-------------11-------------11\-----|-20------------|-----------------|
|---------------------------------------------------|---------------|-----------------|
|---------------------------------------------------|---------------|-----------------|
|---------------------------------------------------|---------------|-----------------|
|---------------------------------------------------|---------------|-----------------|
|
|  Q              Q              Q              Q      Q  Q   Q  Q     Q  Q   Q  Q
|---------------------------------------------------|---------------|-----------------|
|---------------------------------------------------|---------------|-----------------|
|---------------------------------------------------|---------------|-----------------|
|--8--------------8--------------8--------------8---|--5--5---5--5--|--5--5---5--5----|
|--8--------------8--------------8--------------8---|--5--5---5--5--|--5--5---5--5----|
|--8--------------8--------------8--------------8---|--5--5---5--5--|--5--5---5--5----|


  C5
   TP                TP      TP
   W                 H       H
|-20--------------|-18------16------|
|-----------------|-----------------|
|-----------------|-----------------|
|-----------------|-----------------|
|-----------------|-----------------|
|-----------------|-----------------|
|
|  Q   Q   Q   Q     Q   Q   Q   Q
|-----------------|-----------------|
|-----------------|-----------------|
|-----------------|-----------------|
|-10--10--10--10--|-10--10--10--10--|
|-10--10--10--10--|-10--10--10--10--|
|-10--10--10--10--|-10--10--10--10--|


  D5
   TP  TP       TP   TP        TP     TP
   E  +E       +S   +H        +E.    +H       H
|-15-(15)b16==(15)r(15)------(15)-|-(15)-----------|
|---------------------------------|----------------|
|---------------------------------|----------/7\---|
|---------------------------------|----------/7\---|
|---------------------------------|----------/5\---|
|---------------------------------|----------------|
|
|  Q            Q       Q  Q          Q   Q   H
|---------------------------------|----------------|
|---------------------------------|----------------|
|--7------------7-------7--7------|---7---7--/7\---|
|--7------------7-------7--7------|---7---7--/7\---|
|--5------------5-------5--5------|---5---5--/5\---|
|---------------------------------|----------------|


  G#5                                   F5
   Q  +H      +Q       H       H         W             +W
|-------------------|-----------------|--------------|--------------|
|-------------------|-/4\-----/6\-----|--------------|--------------|
|-/5--(5)-----(5)\--|-----------------|-/7-----------|-(7)----------|
|-------------------|-----------------|--------------|--------------|
|-------------------|-----------------|--------------|--------------|
|-------------------|-----------------|--------------|--------------|
|
|  Q   Q   Q   Q       Q   Q   Q   Q     Q  Q  Q  Q     Q   Q  Q  Q
|-------------------|-----------------|--------------|--------------|
|-------------------|-----------------|--------------|--------------|
|-------------------|-----------------|--------------|--------------|
|--6---6---6---6----|--6---6---6---6--|--3--3--3--3--|--3---3--3--3-|
|--6---6---6---6----|--6---6---6---6--|--3--3--3--3--|--3---3--3--3-|
|--6---6---6---6----|--6---6---6---6--|--3--3--3--3--|--3---3--3--3-|


  G#5                                     F5
   Q  +H      +Q        H        H         W              +W
|-/8--(8)-----(8)\--|-/11\-----/13\-----|--------------|---------------||
|-------------------|-------------------|-13-----------|-(13)----------||
|-------------------|-------------------|--------------|---------------||
|-------------------|-------------------|--------------|---------------||
|-------------------|-------------------|--------------|---------------||
|-------------------|-------------------|--------------|---------------||
|
|  Q   Q   Q   Q        Q   Q    Q   Q     Q  Q  Q  Q      Q   Q  Q  Q
|-------------------|-------------------|--------------|---------------||
|-------------------|-------------------|--------------|---------------||
|-------------------|-------------------|--------------|---------------||
|--6---6---6---6----|---6---6----6---6--|--3--3--3--3--|---3---3--3--3-||
|--6---6---6---6----|---6---6----6---6--|--3--3--3--3--|---3---3--3--3-||
|--6---6---6---6----|---6---6----6---6--|--3--3--3--3--|---3---3--3--3-||


 Chorus
  C5/G                           Bb/G
   ~~
   W             W               W             W
|--------------|---------------|-------------|----------------|
|-13-----------|---------------|-------------|----------------|
|--------------|---------------|-------------|----------------|
|--------------|---------------|-------------|----------------|
|--------------|---------------|-------------|----------------|
|--------------|---------------|-------------|----------------|
|
| Gtr IV
|  Q  Q  Q  Q    Q   Q  Q  Q     Q  Q  Q  Q    Q   Q  Q  Q
|--------------|-----------6-5-|-6-----------|-----------6-5--|
|--------------|---------------|-------------|----------------|
|--5-----5-----|-5------5------|-7-----7-----|-7------7-------|
|--5-----5-----|-5------5------|-5-----5-----|-5------5-------|
|-----3-----3--|-----3-----3---|-------------|----------------|
|--------------|---------------|----5-----5--|-----5-----5----|
                 H.        E E   W             H.        E E


  Fsus4                        C5/G
  Gtr IV
  Q  Q  Q  Q    Q   Q  Q  Q    Q  Q  Q  Q    Q  Q  Q  Q
|-6-----------|-----------6--|-------------|------------|
|-------------|--------------|-8-----------|------------|
|-5-----5-----|-5------5-----|-5-----5-----|-5-----5----|
|-3-----3-----|-3------3-----|-5-----5-----|-5-----5----|
|-------------|--------------|----3-----3--|----3-----3-|
|----3-----3--|-----3-----3--|-------------|------------|
  W             H.        Q    W             W


                                Bb/G
  Q  Q  Q  Q    Q   Q  Q  Q     Q  Q  Q  Q    Q   Q  Q  Q
|-------------|-----------6-5-|-6-----------|-----------6-5--|
|-------------|---------------|-------------|----------------|
|-5-----5-----|-5------5------|-7-----7-----|-7------7-------|
|-5-----5-----|-5------5------|-5-----5-----|-5------5-------|
|----3-----3--|-----3-----3---|-------------|----------------|
|-------------|---------------|----5-----5--|-----5-----5----|
                H.        E E   W             H.        E E


  Fsus4                        C5/G
  Q  Q  Q  Q    Q   Q  Q  Q    Q  Q  Q  Q    Q  Q  Q  Q
|-6-----------|-----------6--|-------------|------------||
|-------------|--------------|-8-----------|------------||
|-5-----5-----|-5------5-----|-5-----5-----|-5-----5----||
|-3-----3-----|-3------3-----|-5-----5-----|-5-----5----||
|-------------|--------------|----3-----3--|----3-----3-||
|----3-----3--|-----3-----3--|-------------|------------||
  W             H.        Q    W             W


 Bridge
  C5                                  G5
  Gtr III
   Q   Q   Q   Q     Q   Q   Q   Q    Q  Q  Q  Q    Q  Q  Q  Q
|-----------------|-----------------|-------------|------------|
|-----------------|-----------------|-------------|------------|
|-----------------|-----------------|-------------|------------|
|-10--10--10--10--|-10--10--10--10--|-5--5--5--5--|-5--5--5--5-|
|-10--10--10--10--|-10--10--10--10--|-5--5--5--5--|-5--5--5--5-|
|-10--10--10--10--|-10--10--10--10--|-5--5--5--5--|-5--5--5--5-|


  Bb5                         C5
  Q  Q  Q  Q    Q  Q  Q  Q     Q   Q   Q   Q     Q   Q   Q   Q
|-------------|-------------|-----------------|----------------|
|-------------|-------------|-----------------|----------------|
|-------------|-------------|-----------------|----------------|
|-8--8--8--8--|-8--8--8--8--|-10--10--10--10--|-10--10--10--10-|
|-8--8--8--8--|-8--8--8--8--|-10--10--10--10--|-10--10--10--10-|
|-8--8--8--8--|-8--8--8--8--|-10--10--10--10--|-10--10--10--10-|


                                      G5
   Q   Q   Q   Q     Q   Q   Q   Q    Q  Q  Q  Q    Q  Q  Q  Q
|-----------------|-----------------|-------------|------------|
|-----------------|-----------------|-------------|------------|
|-----------------|-----------------|-------------|------------|
|-10--10--10--10--|-10--10--10--10--|-5--5--5--5--|-5--5--5--5-|
|-10--10--10--10--|-10--10--10--10--|-5--5--5--5--|-5--5--5--5-|
|-10--10--10--10--|-10--10--10--10--|-5--5--5--5--|-5--5--5--5-|


  Bb5                         C5
  Q  Q  Q  Q    Q  Q  Q  Q     Q   Q   Q   Q     Q   Q   Q   Q
|-------------|-------------|-----------------|----------------||
|-------------|-------------|-----------------|----------------||
|-------------|-------------|-----------------|----------------||
|-8--8--8--8--|-8--8--8--8--|-10--10--10--10--|-10--10--10--10-||
|-8--8--8--8--|-8--8--8--8--|-10--10--10--10--|-10--10--10--10-||
|-8--8--8--8--|-8--8--8--8--|-10--10--10--10--|-10--10--10--10-||


 Outro
  G#5                                     Bb5
  Gtr II
  E E E  E E E E  E   E E E  E E E E  E   E E E  E E E E  E   E E E  E E E Q
|-------------------|-------------------|-------------------|----------------|
|-------------------|-------------------|-------------------|----------------|
|-8p7------7h8-8h10-|-8p7------7h8-8h10-|-8p7------7h8-8h10-|-8p7------7h8-8-|
|-----8h10----------|-----8h10----------|-----8h10----------|-----8h10-------|
|-------------------|-------------------|-------------------|----------------|
|-------------------|-------------------|-------------------|----------------|
|
| Gtr III
| Q   Q    Q   Q      Q   Q    Q   Q      Q   Q    Q   Q      Q   Q    Q   Q
|-------------------|-------------------|-------------------|----------------|
|-------------------|-------------------|-------------------|----------------|
|-------------------|-------------------|-------------------|----------------|
|-6---6----6---6----|-6---6----6---6----|-8---8----8---8----|-8---8----8---8-|
|-6---6----6---6----|-6---6----6---6----|-8---8----8---8----|-8---8----8---8-|
|-6---6----6---6----|-6---6----6---6----|-8---8----8---8----|-8---8----8---8-|


  C5
   E     E     E     E     E     E     E     E       Q      Q      Q      Q
|-------------------------------------------------|-----------------------------|
|-------------------------------------------------|-----------------------------|
|-12----12----12----12----12----12----12----12----|-12-----12-----12-----12-----|
|-15b17-15b17-15b17-15b17-15b17-15b17-15b17-15b17-|-15b17--15b17--15b17--15b17--|
|-------------------------------------------------|-----------------------------|
|-------------------------------------------------|-----------------------------|
|
|  Q           Q           Q           Q             Q      Q      Q      Q
|-------------------------------------------------|-----------------------------|
|-------------------------------------------------|-----------------------------|
|-------------------------------------------------|-----------------------------|
|-10----------10----------10----------10----------|-10-----10-----10-----10-----|
|-10----------10----------10----------10----------|-10-----10-----10-----10-----|
|-10----------10----------10----------10----------|-10-----10-----10-----10-----|


   Q      Q      Q      Q        Q      Q      Q      Q
|-----------------------------|----------------------------|
|-----------------------------|----------------------------|
|-12-----12-----12-----12-----|-12-----12-----12-----12----|
|-15b17--15b17--15b17--15b17--|-15b17--15b17--15b17--15b17-|
|-----------------------------|----------------------------|
|-----------------------------|----------------------------|
|
|  Q      Q      Q      Q        Q      Q      Q      Q
|-----------------------------|----------------------------|
|-----------------------------|----------------------------|
|-----------------------------|----------------------------|
|-10-----10-----10-----10-----|-10-----10-----10-----10----|
|-10-----10-----10-----10-----|-10-----10-----10-----10----|
|-10-----10-----10-----10-----|-10-----10-----10-----10----|


  G#5                                     Bb5
  E E E  E E E E  E   E E E  E E E E  E   E E E  E E E E  E   E E E  E E E Q
|-------------------|-------------------|-------------------|----------------|
|-------------------|-------------------|-------------------|----------------|
|-8p7------7h8-8h10-|-8p7------7h8-8h10-|-8p7------7h8-8h10-|-8p7------7h8-8-|
|-----8h10----------|-----8h10----------|-----8h10----------|-----8h10-------|
|-------------------|-------------------|-------------------|----------------|
|-------------------|-------------------|-------------------|----------------|
|
| Q   Q    Q   Q      Q   Q    Q   Q      Q   Q    Q   Q      Q   Q    Q   Q
|-------------------|-------------------|-------------------|----------------|
|-------------------|-------------------|-------------------|----------------|
|-------------------|-------------------|-------------------|----------------|
|-6---6----6---6----|-6---6----6---6----|-8---8----8---8----|-8---8----8---8-|
|-6---6----6---6----|-6---6----6---6----|-8---8----8---8----|-8---8----8---8-|
|-6---6----6---6----|-6---6----6---6----|-8---8----8---8----|-8---8----8---8-|


  C5
   E     E     E     E     E     E     E     E       Q      Q      Q      Q
|-------------------------------------------------|-----------------------------|
|-------------------------------------------------|-----------------------------|
|-12----12----12----12----12----12----12----12----|-12-----12-----12-----12-----|
|-15b17-15b17-15b17-15b17-15b17-15b17-15b17-15b17-|-15b17--15b17--15b17--15b17--|
|-------------------------------------------------|-----------------------------|
|-------------------------------------------------|-----------------------------|
|
|  Q           Q           Q           Q             Q      Q      Q      Q
|-------------------------------------------------|-----------------------------|
|-------------------------------------------------|-----------------------------|
|-------------------------------------------------|-----------------------------|
|-10----------10----------10----------10----------|-10-----10-----10-----10-----|
|-10----------10----------10----------10----------|-10-----10-----10-----10-----|
|-10----------10----------10----------10----------|-10-----10-----10-----10-----|


   Q      Q      Q      Q        E     E     E     E     E     E     E     E
|-----------------------------|--------------------------------------------------||
|-----------------------------|--------------------------------------------------||
|-12-----12-----12-----12-----|-12----12----12----12----12----12----12----12-----||
|-15b17--15b17--15b17--15b17--|-15b17-15b17-15b17-15b17-15b17-15b17-15b17-15b17--||
|-----------------------------|--------------------------------------------------||
|-----------------------------|--------------------------------------------------||
|
|  Q      Q      Q      Q        Q           Q           Q           Q
|-----------------------------|--------------------------------------------------||
|-----------------------------|--------------------------------------------------||
|-----------------------------|--------------------------------------------------||
|-10-----10-----10-----10-----|-10----------10----------10----------10-----------||
|-10-----10-----10-----10-----|-10----------10----------10----------10-----------||
|-10-----10-----10-----10-----|-10----------10----------10----------10-----------||


  G#5         Bb5         C5
  Gtr V
   W           W            W           +W
|-----------|-----------|------------|---------*|
|-----------|-----------|------------|---------*|
|-----------|-----------|------------|---------*|
|-^6--------|-^8--------|-^10--------|-(10)----*|
|-^6--------|-^8--------|-^10--------|-(10)----*|
|-^6--------|-^8--------|-^10--------|-(10)----*|


 

Duration Legend
---------------
W - whole; H - half; Q - quarter; E - 8th; S - 16th; T - 32nd; X - 64th; a - acciaccatura
+ - note tied to previous; . - note dotted; .. - note double dotted
Uncapitalized letters represent notes that are staccato (1/2 duration)
Irregular groupings are notated above the duration line
Duration letters will always appear directly above the note/fret number it represents the
duration for.  Duration letters with no fret number below them represent rests.  Multi-
bar rests are notated in the form Wxn, where n is the number of bars to rest for.  Low
melody durations appear below the staff

Tablature Legend
----------------
 h   - hammer-on
 p   - pull-off
 b   - bend
 pb  - pre-bend
 r   - bend release (if no number after the r, then release immediately)
 /\  - slide into or out of (from/to "nowhere")
 s   - legato slide
 S   - shift slide
 - natural harmonic
[n]  - artificial harmonic
n(n) - tapped harmonic
 ~   - vibrato
 tr  - trill
 T   - tap
 TP  - trem. picking
 PM  - palm muting
\n/  - tremolo bar dip; n = amount to dip
 \n  - tremolo bar down
 n/  - tremolo bar up
/n\  - tremolo bar inverted dip
 =   - hold bend; also acts as connecting device for hammers/pulls
 <> - volume swell (louder/softer)
 x   - on rhythm slash represents muted slash
 o   - on rhythm slash represents single note slash

Misc Legend
-----------
 |  - bar
||  - double bar
||o - repeat start
o|| - repeat end
*|  - double bar (ending)
 :  - bar (freetime)
 $  - Segno
 &  - Coda
Tempo markers -  = BPM(8/16=s8/s16), where s8 = swing 8ths, s16 = swing 16ths

 
** Generated using Power Tab Editor by Brad Larsen: The Official Power Tab Web Site

            
            
Suggest correction
Creating personal tab
Creating personal tab
You can edit any tab online and save it as your Personal.

You can edit, replace or remove any tab part or add personal notes – all changes will be seen only by you.

Personal tabs can be accessed anytime from any device, even offline.
Learn more »
Give kudos to tab author, rate the tab!
1 2 3 4 5
comments
print report bad tab
guest
You may want to rate the tab now too:
select rating
Wanna post a correction for this tab? Suggest correction