Oops, an error
Loading. Please wait.

Naive Orleans intro tab

version 1
version 1

Intro

Whole song

5,505 views 1 this week
2 commentsread comments
1 2 3 4 5
x 3
add to favorites
×
Save as Personal and add changes to this tab that will be seen only by you. Learn more ›
×
You can save this tab as Personal to edit and correct it or add notes. All changes will be seen only by you. Learn more »
launch autoscroll
font size
0
reset
how to read this tab
guitar tuner
edit
Autoscroll
slow
fast
+/-
esc
set tempo
stop
Author
Difficulty
tabbed by: run5home
email:bball10@ne.rr.com

any corrections? comment, or email. im looking to perfect this tab

Intro I:

e----------------------------------------|
B----------4---------------------1---2---|
G----------------------5-----------1-----|
D------6-----------6---------------------|
A----4---4-------3---3-------------------|
E-----------------------------2----------| x4

Intro II:

e----------------------------------------|
B------2-------4--------6----------------|
G----1---1---3---3----6---6-------8------|
D-------------------------------6---6----|
A----------------------------4-----------|
E--2-------4--------6--------------------| x2

F# (power chord-let ring)
Suggest correction
Creating personal tab
Creating personal tab
You can edit any tab online and save it as your Personal.

You can edit, replace or remove any tab part or add personal notes – all changes will be seen only by you.

Personal tabs can be accessed anytime from any device, even offline.
Learn more »
Give kudos to tab author, rate the tab!
1 2 3 4 5
comments
print report bad tab
2 comments total.
+1 reply
xyzzy314 10 May 21, 2008 01:29 PM

oh, wow. try this way.. it's tenfold easier. just put your guitar in drop D:

|-------------|-----------------------|
|-------------|-----------------------|
|-------------|---------------------6-|
|-------13----|-------10--------6-----|
|---11--------|---11------------------|
|-11--11------|-10--10--------4---4---|


|----------------|-----------------------|
|----------------|-----------------------|
|----6-------8---|-----10----------------|
|--6---6--8----8-|--11----11-------13----|
|----------------|-------------11--------|
|-4-4----6-6-----|-8--8------11--11---11-|

0 reply
JDelgadillo 10 May 23, 2013 06:21 PM

theres a reason its not played on the low strings

guest
You may want to rate the tab now too:
select rating
Wanna post a correction for this tab? Suggest correction