Oops, an error
Loading. Please wait.

Never Take Friendship Personal tab

version 3
version 3

Whole song

Interactive

12,254 views 6 this week
2 commentsread comments
1 2 3 4 5
x 12
add to favorites
×
Save as Personal and add changes to this tab that will be seen only by you. Learn more ›
×
You can save this tab as Personal to edit and correct it or add notes. All changes will be seen only by you. Learn more »
launch autoscroll
font size
0
reset
how to read this tab
guitar tuner
edit
Autoscroll
slow
fast
+/-
esc
set tempo
stop
Author
Anberlin
Never Take Friendship Personal
Drop D (Dadgbe)
Guitar 1
Intro (0:00 – 0:06)
|-----------------------------------------------------------------|
|-----------------------------------------------------------------|
|-----------------------------------------------------------------|
|--777--777--777--777--777--777--777--777-------------------------|
|--777--777--777--777--777--777--777--777-------------------------|
|--777--777--777--777--777--777--777--777-------------------------|


Guitar 2
Intro (0:02 – 0:06)
|-----------------------------------------------------------------|
|-----------------------------------------------------------------|
|----------------------222--222--222--222-------------------------|
|----------------------xxx--xxx--xxx--xxx-------------------------|
|----------------------000--000--000--000-------------------------|
|-----------------------------------------------------------------|

Guitar 1
Intro (0:06 – 0:12)
|-----------------------------------------------------------------|
|-----------------------------------------------------------------|
|-----------------------------------------------------------------|
|--777--777--777--777--777--777--777--777-------------------------|
|--777--777--777--777--777--777--777--777-------------------------|
|--777--777--777--777--777--777--777--777-------------------------|

Guitar 2
Intro (0:06 – 0:12)
|-----------------------------------------------------------------|
|-----8----5----8----5----8----5----------------------------------|
|----5----5----5----5----5----5----54---45------------------------|
|--77---77---77---77---77---77---77---77--------------------------|
|-----------------------------------------------------------------|
|-----------------------------------------------------------------|

Guitar 1
Intro (0:12 – 0:17)
|-----------------------------------------------------------------|
|-----------------------------------------------------------------|
|-----------------------------------------------------------------|
|--333--333--333--333--000--000--000--000-------------------------|
|--333--333--333--333--000--000--000--000-------------------------|
|--333--333--333--333--000--000--000--000-------------------------|

Guitar 2
Intro (0:12 – 0:17)
|------------------------------------------------------------------|
|-----8----5----8----5----8----5-----------------------------------|
|----5----5----5----5----5----5----54---45-------------------------|
|--77---77---77---77---77---77---77---77---------------------------|
|------------------------------------------------------------------|
|------------------------------------------------------------------|
Guitar 1
Intro (0:17 – 0:23)
|-----------------------------------------------------------------|
|-----------------------------------------------------------------|
|--------------------9999999910101010-----------------------------|
|--7777777777777777—-7777777777777777-----------------------------|
|--7777777777777777--7777777777777777-----------------------------|
|--7777777777777777--7777777777777777-----------------------------|

Guitar 2
Intro (0:17 – 0:23)
|-----------------------------------------------------------------|
|-----8----5----8----5----8----5----------------------------------|
|----5----5----5----5----5----5----54---45------------------------|
|--77---77---77---77---77---77---77---77--------------------------|
|-----------------------------------------------------------------|
|-----------------------------------------------------------------|

Guitar 1
Intro (0:23 – 0:29)
|-----------------------------------------------------------------|
|-----------------------------------------------------------------|
|--------------------7777777777777777-----------------------------|
|--3333333333333333--0000000000000000-----------------------------|
|--3333333333333333--0000000000000000-----------------------------|
|--3333333333333333--0000000000000000-----------------------------|

Guitar 2
Intro (0:23 – 0:29)
|-----------------------------------------------------------------|
|-----8----5----8----5----8----5----------------------------------|
|----5----5----5----5----5----5----54---45------------------------|
|--77---77---77---77---77---77---77---77--------------------------|
|-----------------------------------------------------------------|
|-----------------------------------------------------------------|

Guitar 1
Verse (0:29 – 0:35)
|-----------------------------------------------------------------|
|-----------------------------------------------------------------|
|-----------------------------------------------------------------|
|--777--777--777--777--777--777--777--777-------------------------|
|--777--777--777--777--777--777--777--777-------------------------|
|--777--777--777--777--777--777--777--777-------------------------|

Guitar 2
Verse (0:29 – 0:35)
|-----------------------------------------------------------------|
|-----------------------------------------------------------------|
|-----------------------------------------------------------------|
|----------------------------This is only for the first time------|
|--------------------------------/7~-5~-3~---0~-------------------|
|-----------------------------------------------------------------|

Guitar 1
Verse (0:35 – 0:40)
|-----------------------------------------------------------------|
|-----------------------------------------------------------------|
|-----------------------------------------------------------------|
|--333--333--333--333--000--000--000--000-------------------------|
|--333--333--333--333--000--000--000--000-------------------------|
|--333--333--333--333--000--000--000--000-------------------------|

Guitar 2
Verse (0:35 – 0:40)
|-----------------------------------------------------------------|
|-----------------------------------------------------------------|
|-------------------------------------xx-xx-----------------------|
|-------------------------------------xx-xx-----------------------|
|-------------------------------------xx-xx-----------------------|
|-----------------------------------------------------------------|

Guitar 1
Verse (0:41 – 0:46)
|-----------------------------------------------------------------|
|-----------------------------------------------------------------|
|-----------------------------------------------------------------|
|--777--777--777--777--777--777--777--777-------------------------|
|--777--777--777--777--777--777--777--777-------------------------|
|--777--777--777--777--777--777--777--777-------------------------|

Guitar 2
Verse (0:41 – 0:46)
|-----------------------------------------------------------------|
|-----------------------------------------------------------------|
|--777--777--777--777--555--555--555--555-------------------------|
|--xxx--xxx--xxx--xxx--xxx--xxx--xxx--xxx-------------------------|
|--555--555--555--555--333--333--333--333-------------------------|
|-----------------------------------------------------------------|

Guitar 1
Verse (0:47 – 0:52)
|-----------------------------------------------------------------|
|-----------------------------------------------------------------|
|-----------------------------------------------------------------|
|--333--333--333--333--000--000--000--000-------------------------|
|--333--333--333--333--000--000--000--000-------------------------|
|--333--333--333--333--000--000--000--000-------------------------|

Guitar 2
Verse (0:47 – 0:52)
|-----------------------------------------------------------------|
|-----------------------------------------------------------------|
|--555--555--555--555--222--222--222--222-------------------------|
|--555--555--555--555--xxx--xxx--xxx--xxx-------------------------|
|--333--333--333--333--000--000--000--000-------------------------|
|-----------------------------------------------------------------|

Guitar 2
Pre-Chorus (0:52 – 0:55)
|-----------------------------------------------------------------|
|-----------------------------------------------------------------|
|--555--555--555--555---------------------------------------------|
|--xxx--xxx--xxx--xxx---------------------------------------------|
|--333--333--333--333---------------------------------------------|
|-----------------------------------------------------------------|

Guitar 1
Chorus (0:55 – 1:01)
|-----------------------------------------------------------------|
|-----------------------------------------------------------------|
|--------------------9999999910101010-----------------------------|
|--7777777777777777—-7777777777777777-----------------------------|
|--7777777777777777--7777777777777777-----------------------------|
|--7777777777777777--7777777777777777-----------------------------|

Guitar 2
Chorus (0:55 – 1:01)
|-----------------------------------------------------------------|
|-----------------------------------------------------------------|
|--7575757597979797--7575757597979797-----------------------------|
|-----------------------------------------------------------------|
|-----------------------------------------------------------------|
|-----------------------------------------------------------------|

Guitar 1
Chorus (1:01 – 1:06)
|-----------------------------------------------------------------|
|-----------------------------------------------------------------|
|--------------------7777777777777777-----------------------------|
|--3333333333333333--0000000000000000-----------------------------|
|--3333333333333333--0000000000000000-----------------------------|
|--3333333333333333--0000000000000000-----------------------------|

Guitar 2
Chorus (1:01 – 1:06)
|-----------------------------------------------------------------|
|-----------------------------------------------------------------|
|--7575757597979797--7575757597979797-----------------------------|
|-----------------------------------------------------------------|
|-----------------------------------------------------------------|
|-----------------------------------------------------------------|

Guitar 1
Chorus (1:06 – 1:13)
|-----------------------------------------------------------------|
|-----------------------------------------------------------------|
|--------------------9999999910101010-----------------------------|
|--7777777777777777—-7777777777777777-----------------------------|
|--7777777777777777--7777777777777777-----------------------------|
|--7777777777777777--7777777777777777-----------------------------|

Guitar 2
Chorus (1:06 – 1:13)
|-----------------------------------------------------------------|
|-----8----5----8----5----8----5----------------------------------|
|----5----5----5----5----5----5----54---45------------------------|
|--77---77---77---77---77---77---77---77--------------------------|
|-----------------------------------------------------------------|
|-----------------------------------------------------------------|

Guitar 1
Chorus (1:13 – 1:18)
|-----------------------------------------------------------------|
|-----------------------------------------------------------------|
|--------------------7777777777777777-----------------------------|
|--3333333333333333--0000000000000000-----------------------------|
|--3333333333333333--0000000000000000-----------------------------|
|--3333333333333333--0000000000000000-----------------------------|

Guitar 2
Chorus (1:13 – 1:18)
|-----------------------------------------------------------------|
|-----8----5----8----5----8----5----------------------------------|
|----5----5----5----5----5----5----54---45------------------------|
|--77---77---77---77---77---77---77---77--------------------------|
|-----------------------------------------------------------------|
|-----------------------------------------------------------------|

Repeat Verse (1:19 – 1:41)
Repeat Pre-Chorus (1:42 – 1:44)
Repeat Chorus (1:45 – 2:08)

Interlude (2:08 – 2:19)        PM----------------------------------|
|------------------------------------------------------------------|
|------------------------------------------------------------------|
|--9~~---5~--2~---9~~---5~-----------------------------------------|
|--7~~---3~--x~---x~~---x~---00000-00------------------------------|
|--7~~---3~--0~---7~~---3~---00000-00------------------------------|
|----------------------------00000-00------------------------------|

Bridge
Guitar 1 (2:20 – 2:25)
|-----------------------------------------------------------------|
|-----------------------------------------------------------------|
|--55555555-7777-9999--44444444-5555-4444-------------------------|
|--xxxxxxxx-xxxx-xxxx--xxxxxxxx-xxxx-xxxx-------------------------|
|--33333333-5555-7777--22222222-3333-2222-------------------------|
|-----------------------------------------------------------------|

Bridge
Guitar 1 (2:25 – 2:31)
|-----------------------------------------------------------------|
|-----------------------------------------------------------------|
|--55555555-7777-9999--444-555-22222222---------------------------|
|--xxxxxxxx-xxxx-xxxx--xxx-xxx-22222222---------------------------|
|--33333333-5555-7777--222-333-00000000---------------------------|
|-----------------------------------------------------------------|

Bridge
Guitar 1 (2:31 – 2:46)
|-----------------------------------------------------------------|
|-----------------------------------------------------------------|
|--55555555-7777-9999--44444444-5555-7777-999999-121212121212-2~~-|
|--xxxxxxxx-xxxx-xxxx--xxxxxxxx-xxxx-xxxx-xxxxxx-x-x-x-x-x-x--2~~-|
|--33333333-5555-7777--22222222-3333-5555-777777-101010101010-0~~-|
|-----------------------------------------------------------------|

Bridge
Guitar 2 (2:40 – 2:46)
|-----------------------------------------------------------------|
|-----------------------------------------------------------------|
|--7575757597979797-7575757597979797------------------------------|
|-----------------------------------------------------------------|
|-----------------------------------------------------------------|
|-----------------------------------------------------------------|

Repeat Chorus (2:46 – 3:09)

Outro / Final Chorus
Guitar 1 (3:10 – 3:15)
|-----------------------------------------------------------------|
|-----------------------------------------------------------------|
|-----------------------------------------------------------------|
|--777--777--777--777--777--777--777--777-------------------------|
|--777--777--777--777--777--777--777--777-------------------------|
|--777--777--777--777--777--777--777--777-------------------------|


Outro / Final Chorus
Guitar 2 (3:10 – 3:15)
|-----------------------------------------------------------------|
|-----8----5----8----5----8----5----------------------------------|
|----5----5----5----5----5----5----54---45------------------------|
|--77---77---77---77---77---77---77---77--------------------------|
|-----------------------------------------------------------------|
|-----------------------------------------------------------------|

Outro / Final Chorus
Guitar 1 (3:15 – 3:23)
|----------------------12----12----12~~~~~---------------------------|
|----------------------15b17-15b17-15b17~~---------------------------|
|--------------------------------------------------------------------|
|--333--333--333--333------------------------------------------------|
|--333--333--333--333------------------------------------------------|
|--333--333--333--333------------------------------------------------|

Outro / Final Chorus
Guitar 2 (3:15 – 3:23)
|-----------------------12----12----12~~~~~-----------------------|
|-----8----5----8----5--15b17-15b17-15b17~~-----------------------|
|----5----5----5----5---------------------------------------------|
|--77---77---77---77----------------------------------------------|
|-----------------------------------------------------------------|
|-----------------------------------------------------------------|

First tab of mine please rate!

            
            
Suggest correction
Creating personal tab
Creating personal tab
You can edit any tab online and save it as your Personal.

You can edit, replace or remove any tab part or add personal notes – all changes will be seen only by you.

Personal tabs can be accessed anytime from any device, even offline.
Learn more »
comments
print report bad tab
2 comments total.
0 reply
BlackTide735 36 May 11, 2009 09:24 AM

Nice tab :) 5*

0 reply
~LΣGACY~ 71 Mar 10, 2011 12:59 PM

This tab is great nice job!

guest
You may want to rate the tab now too:
select rating
Wanna post a correction for this tab? Suggest correction