Oops, an error
Loading. Please wait.

Paperthin Hymn bass

version 1
version 1

Whole song

Interactive

11,292 views 18 this week
4 commentsread comments
1 2 3 4 5
x 13
add to favorites
×
Save as Personal and add changes to this tab that will be seen only by you. Learn more ›
×
You can save this tab as Personal to edit and correct it or add notes. All changes will be seen only by you. Learn more »
launch autoscroll
font size
0
reset
guitar tuner
edit
Autoscroll
slow
fast
+/-
esc
set tempo
stop
--------------------------------------------------------------------
                      PAPERTHIN HYMN - Anberlin
--------------------------------------------------------------------

Tabbed By: Samuel Mobbs
Email: bogan_bassist@hotmail.com

Tuning: Drop D (DADG)

Intro (Gradually gets louder)-

G|--------------------------------|--------------------------------|
D|--------------------------------|--------------------------------|
A|--------------------------------|------------------------0-0-0-0-|
D|0-0-0-0-0-0-0-0-0-0-0-0-2-2-2-2-|3-3-3-3-3-3-3-3-3-3-3-3---------|

G|--------------------------------|--------------------------------|
D|------------------------0-0-0-0-|--------------------------------|
A|1-1-1-1-1-1-1-1-1-1-1-1---------|3-3-3-3-3-3-3-3-3-3-3-3---------|
D|--------------------------------|--------------------------------|

G|--------------------------------|--------------------------------|
D|--------------------------------|------5-5-5-----5-5-5-------5-5-|
A|------------8-8-------------8-8-|--------------------------------|
D|0-0-0-7-7-7-----0-0-0-7-7-7-----|3-3-3-------3-3-------3-3-3-----|

G|--------------------------------|--------------------------------|
D|--------------------------------|------5-5-5-----5-5-5-------5-5-|
A|------------8-8-------------8-8-|--------------------------------|
D|0-0-0-7-7-7-----0-0-0-7-7-7-----|3-3-3-------3-3-------3-3-3-----|

Verse X 2

G|--------------------------------|--------------------------------|
D|0-0-0-0-0-0-0-0-0-0-0-0-0-0-0-0-|0-0-0-0-0-0-0-0-0-0-0-0-0-0-0-0-|
A|--------------------------------|--------------------------------|
D|--------------------------------|--------------------------------|

G|--------------------------------|--------------------------------|
D|3-3-3---------------------------|--------------------0-2-3-2-0---|
A|--------------------------------|3-3-3-3-3-3-3-3-3-3-----------3-|
D|------0-3-3-3-3-3-3-3-3-3-3-3-3-|--------------------------------|

Pre-Chorus

G|--------------------------------|--------------------------------|
D|--------------------------------|--------------------------------|
A|1-1-1-1-1-1-1-1-1-1-1-1-1-1-1-1-|--------------------------------|
D|--------------------------------|0-0-0-0-0-0-0-0-0-0-0-0-0-0-0-0-|

G|--------------------------------|--------------------------------|
D|--------------------------------|--------------------------------|
A|--------------------------------|1-1-1-1-1-1-1-1-3-3-3-3---------|
D|3-3-3-3-3-3-3-3-3-3-3-3-3-3-3-3-|--------------------------------|

Chorus X 2

G|--------------------------------|--------------------------------|
D|--------------------------------|--------------------------------|
A|--------------------------------|------------------------0-0-0-0-|
D|0-0-0-0-0-0-0-0-0-0-0-0-2-2-2-2-|3-3-3-3-3-3-3-3-3-3-3-3---------|

G|--------------------------------|--------------------------------|
D|------------------------0-0-0-0-|--------------------------------|
A|1-1-1-1-1-1-1-1-1-1-1-1---------|3-3-3-3-3-3-3-3-3-3-3-3---------|
D|--------------------------------|------------------------3-3-3-3-|

Pre-Verse

G|--------------------------------|
D|--------------------------------|
A|--------------------------------|
D|0-----------------------0---0---|

Verse

G|--------------------------------|--------------------------------|
D|0-0-0-0-0-0-0-0-0-0-0-0-0-0-0-0-|0-0-0-0-0-0-0-0-0-0-0-0-0-0-0-0-|
A|--------------------------------|--------------------------------|
D|--------------------------------|--------------------------------|

G|--------------------------------|--------------------------------|
D|3-3-3---------------------------|--------------------------------|
A|--------------------------------|3-3-3-3-3-3-3-3-3-------3-------|
D|------0-3-3-3-3-3-3-3-3-3-3-3-3-|--------------------------------|

G|--------------------------------|--------------------------------|
D|0-0-0-0-0-0-0-0-0-0-0-0-0-0-0-0-|0-0-0-0-0-0-0-0-0-0-0-0-0-0-0-0-|
A|--------------------------------|--------------------------------|
D|--------------------------------|--------------------------------|

G|--------------------------------|--------------------------------|
D|3-3-3---------------------------|--------------------------------|
A|--------------------------------|3-3-3-3-3-3-3-3-3-3-3-3-3-3-3-3-|
D|------0-3-3-3-3-3-3-3-3-3-3-3-3-|--------------------------------|

Fill

G|--------------------------------|--------------------------------|
D|--------------------------------|--------------------------------|
A|--------------------------------|1~-------------------------------|
D|0~--------------0~--------------|----------------2~--------------|

Pre-Chorus

G|--------------------------------|--------------------------------|
D|--------------------------------|--------------------------------|
A|1-1-1-1-1-1-1-1-1-1-1-1-1-1-1-1-|--------------------------------|
D|--------------------------------|0-0-0-0-0-0-0-0-0-0-0-0-0-0-0-0-|

G|--------------------------------|--------------------------------|
D|--------------------------------|--------------------------------|
A|--------------------------------|--------------------------------|
D|3-3-3-3-3-3-3-3-3-3-3-3-3-3-3-3-|--------------------------------|

Chorus X 2

G|--------------------------------|--------------------------------|
D|--------------------------------|--------------------------------|
A|--------------------------------|------------------------0-0-0-0-|
D|0-0-0-0-0-0-0-0-0-0-0-0-2-2-2-2-|3-3-3-3-3-3-3-3-3-3-3-3---------|

G|--------------------------------|--------------------------------|
D|------------------------0-0-0-0-|--------------------------------|
A|1-1-1-1-1-1-1-1-1-1-1-1---------|3-3-3-3-3-3-3-3-3-3-3-3---------|
D|--------------------------------|------------------------3-3-3-3-|

Post-Chorus

G|--------------------------------|--------------------------------|
D|--------------------------------|--------------------------------|
A|1-1-1-1-1-1-1-1-1-1-1-1-1-1-1-1-|3-3-3-------3-3-3---------------|
D|--------------------------------|------0-0-0-------0-0-0-12/-----|

Bridge pt. 1 X 3

G|--------------------------------|--------------------------------|
D|--------------------------------|------5-5-5-----5-5-5-------5-5-|
A|------------8-8-------------8-8-|--------------------------------|
D|0-0-0-7-7-7-----0-0-0-7-7-7-----|3-3-3-------3-3-------3-3-3-----|

Bridge pt. 2

G|--------------------------------|--------------------------------|
D|--------------------------------|0-0-0-0-0-0-0-0-----------------|
A|1-1-1-1-1-1-1-1-1-1-1-1-1-1-1-1-|----------------3-3-3-3---------|
D|--------------------------------|------------------------3-3-3-3-|

Final Chorus

G|--------------------------------|--------------------------------|
D|--------------------------------|--------------------------------|
A|--------------------------------|--------------------------------|
D|--------------------------------|--------------------------------|

G|--------------------------------|--------------------------------|
D|------------------------0-0-0-0-|--------------------------------|
A|1-1-1-1-1-1-1-1-1-1-1-1---------|3-3-3-3-3-3-3-3-3-3-3-3---------|
D|--------------------------------|------------------------3-3-3-3-|

G|--------------------------------|--------------------------------|
D|--------------------------------|--------------------------------|
A|--------------------------------|------------------------0-0-0-0-|
D|0-0-0-0-0-0-0-0-0-0-0-0-2-2-2-2-|3-3-3-3-3-3-3-3-3-3-3-3---------|

G|--------------------------------|--------------------------------|
D|------------------------0-0-0-0-|--------------------------------|
A|1-1-1-1-1-1-1-1-1-1-1-1---------|3-3-3-3-3-3-3-3-3-3-3-3---------|
D|--------------------------------|--------------------------------|

G|--------------------------------|--------------------------------|
D|--------------------------------|--------------------------------|
A|1-1-1-1-1-1-1-1-1-1-1-1-1-1-1-1-|3-3-3-3-3-3-3-3-3-3-3-3-3-3-3-3-|
D|--------------------------------|--------------------------------|

G|--------------------------------|--------------------------------|
D|--------------------------------|--------------------------------|
A|1-1-1-1-1-1-1-1-1-1-1-1-1-1-1-1-|1---1---1---1---1---1---3---3---|
D|--------------------------------|--------------------------------|

G|--------------------------------|
D|--------------------------------|
A|3---3---------------------------|
D|--------------------------------|

There was no previous tab for this, so I thought I'd give it a shot.
If you think you can do better, please do.

Questions, comments, corrections? Email me at bogan_bassist@hotmail.com

| /  slide up
| \  slide down
| h  hammer-on
| p  pull-off
| ~  hold note
| +  harmonic
| x  mute note
====================================================================

            
            
Suggest correction
Creating personal tab
Creating personal tab
You can edit any tab online and save it as your Personal.

You can edit, replace or remove any tab part or add personal notes – all changes will be seen only by you.

Personal tabs can be accessed anytime from any device, even offline.
Learn more »
comments
print report bad tab
4 comments total. Showing first comments.
0 reply
Victim0FDeath94 50 Apr 15, 2008 12:16 PM

was really good tab

my amp died so couldnt see the end chorus

but was good (:

0 reply
jesuspunk777 145 May 23, 2008 07:03 AM

great tab man this song is really fun to play....5 stars!!!

0 reply
Mr.Ryancore 10 Jun 30, 2008 10:25 AM

I don't think the bass plays along with the gutiar(s) in the second part of the intro.

Other than that perfect. =]

guest
You may want to rate the tab now too:
select rating
Wanna post a correction for this tab? Suggest correction