Oops, an error
Loading. Please wait.

Paperthin Hymn tab

version 2
version 2

Whole song

Interactive

63,104 views 12 this week
21 commentsread comments
1 2 3 4 5
x 34
add to favorites
×
Save as Personal and add changes to this tab that will be seen only by you. Learn more ›
×
You can save this tab as Personal to edit and correct it or add notes. All changes will be seen only by you. Learn more »
launch autoscroll
font size
0
reset
how to read this tab
guitar tuner
edit
Autoscroll
slow
fast
+/-
esc
set tempo
stop
Song: Paper Thin Hymn
Band: Anberlin
Album: Never Take Friendship Personal
Tuning: Drop D (D,A,D,G,B,E)

Notes: The other guys tab is pretty close. All i did was make this so one guy could play 
rather than having 5 guitar parts.

Legend: . = palm mute
        ^ = bend string
       ^^ = bend crap out of string
      ^^^ = Insert your idea of destroying an already bent string_____.
        / = slide down

[Intro Part 1] (Clean) This chord is right as the effects part ends.
E|-------|
B|-6~----|
G|-5~----|
D|-3~----|
A|-------|
D|-------|

[Intro Part 2] (Dist):::::X2
E|-----------------------------------------------------------------|
B|-----------------------------------------------------------------|
G|-----------------------------------------------------------------|
D|---------------------------------------5-5-5-----5-5-5-------5-5-|
A|-------------8-8-------------8-8---------------------------------|
D|-0-0-0-7-7-7-----0-0-0-7-7-7-----3-3-3-------3-3-------3-3-3-----|

 Verse 1: I lined up the two parts for you
 Guitar 1 (Clean) I dont know how many times its played.
E|----------|----------|----------|----------|
B|-66666666-|-66666666-|-66666666-|-66666666-|
G|-55555555-|-55555555-|-55555555-|-55555555-|
D|-33333333-|-33333333-|-33333333-|-33333333-|
A|----------|----------|----------|----------|
D|----------|----------|----------|----------|

 Guitar 2 (Clean)
E|-------8~-|-------8~-|-------6~-|-------6~-|
B|-----8----|-----8----|-----6----|-----6----|
G|----------|----------|----------|----------|
D|----------|----------|----------|----------|
A|----------|----------|----------|----------|
D|----------|----------|----------|----------|

 [Post Verse Fill] (Dist)
E|---------------------|
B|---------------------|
G|---------------------|
D|---------------------|
A|--------8-7----------|
D|-0-8-10----10-7------|

 [Chorus Part 1] "whos gonna call on Sunday..." (Dist)
E|------------------------------|
B|------------------------------|
G|-10--9-------10--12-----------|
D|-10--7---3---10--10-----------|
A|-8---0---3---8---10---8-7-----|
D|-8---0---3---8---10------10-7-|

 [Chorus Part 2] "I thought you said forever"
E|----------------------|-----------------------|
B|----------------------|-----------------------|
G|--2--2--2-2-2-2--2--2-|--2--2--2-2-2----------|
D|--0--0--0-0-0-0--0--0-|--0--0--0-0-0-2--2--2--|
A|--0--0--0-0-0-0--0--0-|--0--0--0-0-0-3--3--3--|
D|--0--0--0-0-0-0--0--0-|--0--0--0-0-0-2--2--2--|

E|----------------------|-----------------------|
B|----------------------|-----------------------|
G|--5--5--5-5-5-5--5--5-|--5--5--5-5-5----------|
D|--3--3--3-3-3-3--3--3-|--3--3--3-3-3-7--7--7--|
A|--3--3--3-3-3-3--3--3-|--3--3--3-3-3-8--8--8--|
D|--3--3--3-3-3-3--3--3-|--3--3--3-3-3-7--7--7--|

E|----------------------|-----------------------|
B|----------------------|-----------------------|
G|-10-10-10101010-10-10-|-10-10-101010-14-14-14-|
D|--8--8--8-8-8-8--8--8-|--8--8--8-8-8-12-12-12-|
A|--8--8--8-8-8-8--8--8-|--8--8--8-8-8-12-12-12-|
D|--8--8--8-8-8-8--8--8-|--8--8--8-8-8-12-12-12-|

E|-------------------------|--------------------|
B|-------------------------|--------------------|
G|-12-12-12-12-12-12-12-12-|-12-12-12-12-5-5-5-5|
D|-10-10-10-10-10-10-10-10-|-10-10-10-10-3-3-3-3|
A|-10-10-10-10-10-10-10-10-|-10-10-10-10-3-3-3-3|
D|-10-10-10-10-10-10-10-10-|-10-10-10-10-3-3-3-3|

 [Post Chorus]
E|-------------------------|
B|-------------------------|
G|----9-^^^^^^^^^^^^^------|
D|-0~----------------------|
A|-0~----------------------|
D|-0~----------------------|

[Verse] Same

 [Post Verse Fill 2] (Dist)
E|-------------|
B|-------------|
G|----2-10-----|
D|-0--3-10-----|
A|-0--0--8-----|
D|-0--0--8--2~-|

 [Chorus Part 1] "Whos gonna call..."(Dist)
E|--------------------------------------|
B|------------9----9----9----10---10----|
G|-10---9------7-7--7-7--7-7---7-7--7-7-|
D|-10---7---3---------------------------|
A|--8---0---3---------------------------|
D|--8---0---3---------------------------|
             ..........................
Chorus Part 2: Same

 Post Chorus:
E|----------------------------------------|
B|----------------------------------------|
G|-10-------------------------------------|
D|-10---------------------------------12/-|
A|--8---------------------------------12/-|
D|--8---10-10-10-0-0-0-10-10-10-0-0-0-12/-|

 [Bridge] Intro x3
 Then do this:
E|------------|
B|------------|
G|-----7-5----|
D|-10--7-5--3-|
A|--8--5-3--3-|
D|--8-------3-|

[Chorus] Palm Muted intro.
[Chorus] Part 2 x2

OK. thats it. Enjoy. Please rate and comment.

************************************

| ~  Vibrato
| /  Slide up

************************************

            
            
Suggest correction
Creating personal tab
Creating personal tab
You can edit any tab online and save it as your Personal.

You can edit, replace or remove any tab part or add personal notes – all changes will be seen only by you.

Personal tabs can be accessed anytime from any device, even offline.
Learn more »
comments
print report bad tab
21 comments total. Showing first comments.
+3 reply
abreadford107 186 Aug 17, 2006 03:55 PM

i think that at the very end it goes like this

------------------------------------
------------------------------------
--10-10-10-10-10-10-10--------------
--10-10-10-10-10-10-10-10-10-10-10--
--8--8--8--8--8--8--8--10-10-10-10--
--8--8--8--8--8--8--8--10-10-10-10--

well thats it

0 reply
fret13 1,031 Nov 12, 2006 07:51 AM

hey this is really good but the only part i have trouble with isthe second chorus with the palm muted strings. 5*

0 reply
metalman315 10 Jan 16, 2007 12:44 PM

ok nice tab

Verse 1: I lined up the two parts for you
Guitar 1 (Clean) I dont know how many times its played.
|----------|----------|----------|----------|
|-66666666-|-66666666-|-66666666-|-66666666-|
|-55555555-|-55555555-|-55555555-|-55555555-|
|-33333333-|-33333333-|-33333333-|-33333333-|
|----------|----------|----------|----------|
|----------|----------|----------|----------|
Guitar 2 (Clean)
|-------8~-|-------8~-|-------6~-|-------6~-|
|-----8----|-----8----|-----6----|-----6----| right here theres
|----------|----------|----------|----------| another note on the
|----------|----------|----------|----------| G string
|----------|----------|----------|----------|
|----------|----------|----------|----------|

guest
You may want to rate the tab now too:
select rating
Wanna post a correction for this tab? Suggest correction