Oops, an error
Loading. Please wait.

Paperthin Hymn Acoustic tab

version 4
version 4

Whole song

Interactive

97 views 1 this week
no commentswrite comment
1 2 3 4 5
3 more votes to show rating
add to favorites
×
Save as Personal and add changes to this tab that will be seen only by you. Learn more ›
×
You can save this tab as Personal to edit and correct it or add notes. All changes will be seen only by you. Learn more »
launch autoscroll
font size
0
reset
how to read this tab
guitar tuner
edit
Autoscroll
slow
fast
+/-
esc
set tempo
stop
This tab is based off of numerous videos from
the internet but is mainly based off of these:
https://www.youtube.com/watch?v=SGVjbjUsHhA
https://www.youtube.com/watch?v=yS2qVOiazXo

Any Likes, Comments, And Rates Will Be Greatly Appreciated! 

[Intro]

 Lead And Rhythm
e|----x------x---x----------|
B|----6------6---6----------|
G|----5------5---5----------|
D|----0------3---4----------|
A|----x------x---x----------|
D|----x------x---x----------|

  Lead
e|--------------------------------------------------------------------------------|
B|--------------------------------------------------------------------------------|
G|--------------------------------------------------------------------------------| x2
D|----------------------------------------------------5-5--------5-5-5-------5-5--|
A|--------------------8-8----------------8-8--------------------------------------|
D|-----0-0-0---7-7-7--------0-0-0--7-7-7---------3-3-3---------3-3---------3-3----|

  Rhythm
e|---x------------------------------------------x------x-------------------------|
B|---3------------------------------------------x------x-------------------------|
G|---2------------------------------------------x------5-------------------------| x2
D|---0------------------------------------------5------5-------------------------|
A|---0------------------------------------------3------3-------------------------|
D|---0------------------------------------------2------3-------------------------|


[Verse]

 Lead
e|----x------x---x----------|
B|----6------6---6----------|
G|----5------5---5----------| x2
D|----0------3---4----------|
A|----x------x---x----------|
D|----x------x---x----------|

 Rhythm
e|--x--------x----x---------|
B|--3--------x----x---------|
G|--2--------5----5---------|
D|--0--------5----5---------|
A|--0--------3----3---------|
D|--0--------x----3---------|


[Pre-Chorus]

 Lead And Rhythm
e|--x------x------x------x----x------|
B|--10-----x------x------10---12-----|
G|--10-----9------5------10---12-----|
D|--10-----7------3------10---12-----|
A|--8------0------3------8----10-----|
D|--8------x------3------8----10-----|

[Chorus]

 Lead And Rhythm
e|---x-----x---x-----x---x-----x---x---x---x----x---x--|
B|---3-----x---x-----x---x-----x---x---x---3----x---x--|
G|---2-----x---5-----x---10----7---5---5---2----x---x--|
D|---0-----5---5-----10--10----7---5---5---0----x---x--|
A|---0-----3---3-----8---8-----5---3---3---0----x---x--|
D|---0-----2---3-----7---8-----5---x---3---0----x---x--|


[Verse]

Lead And Rhythm
e|--x------x---x----------|
B|--2------x---x----------|    You can play this
G|--3------5---5----------| x2 or just play the
D|--0------5---5----------|    chords from the intro
A|--0------3---3----------|
D|--0------x---3----------|


[Solo Thing]

 Lead And Rhythm
e|--x------x------x-------x-------|
B|--2------x------x-------x-------|
G|--3------10-----12------x-------|
D|--0------10-----12------5-------|
A|--0------8------10------3-------|
D|--0------8------10------2-------|


[Pre-Chorus]

 Lead And Rhythm
e|--x------x------x------x---x-----|
B|--10-----x------x------x---x-----|
G|--10-----9------5------9---10----|
D|--10-----7------3------7---7-----|
A|--8------0------3------x---x-----|
D|--8------x------3------x---x-----|


[Chorus]

 Lead And Rhythm
e|---x-----x---x-----x---x-----x---x---------|
B|---3-----x---x-----x---x-----x---x---------|
G|---2-----x---5-----x---10----7---5---------|
D|---0-----5---5-----10--10----7---5---------|
A|---0-----3---3-----8---8-----5---3---------|
D|---0-----2---3-----7---8-----5---x---------|


[Leading Into The Solo]

 Lead                                         Slide down
e|--x-----x----x-----x-----x----x-------x-----x----x-----x----x---------|
B|--x-----x----x-----x-----x----x-------x-----x----x-----x----x---------|
G|--10----9----9-----10----9----9-------9-----9----9-----9----x---------|
D|--8-----8----10----8-----8----10------12----0----12----0----12\-------|
A|--8-----8----8-----8-----8----8-------12----0----12----0----12\-------|
D|--8-----8----8-----8-----8----8-------12----0----12----0----12\-------|

 Rhythm
e|---x----------------------------------x----------x-----x----x---------|
B|---x----------------------------------x----------x-----x----x---------|
G|---10---------------------------------9-----9----9-----9----x---------|
D|---10---------------------------------12----0----12----0----12\-------|
A|---8----------------------------------12----0----12----0----12\-------|
D|---8----------------------------------12----0----12----0----12\-------|


[Solo]

 Lead
e|--------------------------------------------------------------------------------|
B|--------------------------------------------------------------------------------|
G|--------------------------------------------------------------------------------| x3
D|-----------------------------------------------------5-5--------5-5-5-------5-5-|
A|--------------------8-8----------------8-8--------------------------------------|
D|-----0-0-0---7-7-7--------0-0-0--7-7-7---------3-3-3---------3-3---------3-3----|

 Rhythm
e|---x-------------------------------------------x------x-------------------------|
B|---3-------------------------------------------x------x-------------------------|
G|---2-------------------------------------------x------5-------------------------| x3
D|---0-------------------------------------------5------5-------------------------|
A|---0-------------------------------------------3------3-------------------------|
D|---0-------------------------------------------2------3-------------------------|


[Leading Into Chorus]

 Lead
e|--x-----x---x---------x-----x---x------x-------x------|
B|--x-----x---x---------x-----x---x------12------x------|
G|--10----9---9---------10----9---9------12------x------|
D|--8-----8---10--------8-----8---10-----12------3------|
A|--8-----8---8---------8-----8---8------10------3------|
D|--8-----8---8---------8-----8---8------10------3------|

 Rhythm
e|--x----------------------------------x---------x------|
B|--x----------------------------------x---------x------|
G|--10---------------------------------12--------x------|
D|--10---------------------------------12--------3------|
A|--8----------------------------------10--------3------|
D|--8----------------------------------10--------3------|


[Chorus]

 Lead And Rhythm

(Quiet)

e|---x-----x---x---|--x---x-----x---x---x----x-------|
B|---3-----x---x---|--x---x-----x---x---x----3-------|
G|---2-----x---5---|--x---10----7---5---5----2-------|
D|---0-----5---5---|--10--10----7---5---5----0-------|
A|---0-----3---3---|--8---8-----5---3---3----0-------|
D|---0-----2---3---|--7---8-----5---x---3----0-------|


e|---x-----x---x-----x---x-----x---x----|
B|---3-----x---x-----x---x-----x---x----|
G|---2-----x---5-----x---10----7---5----|
D|---0-----5---5-----10--10----7---5----|
A|---0-----3---3-----8---8-----5---3----|
D|---0-----2---3-----7---8-----5---x----|


[Ending]

                                                                                         
                                                                                                        
                                                                                                  |
 Lead                                                                                Slide down   V
e|--x-----x---x-------x-----x---x-------x------x-------x-----x---x-------x-----x---x-------x------x---\---|
B|--x-----x---x-------x-----x---x-------12-----x-------x-----x---x-------x-----x---x-------10-----12--\---|
G|--10----9---9-------10----9---9-------12-----9-------10----9---9-------10----9---9-------10-----12--\---|
D|--8-----8---10------8-----8---10------12-----9-------8-----8---10------8-----8---10------10-----12--\---|
A|--8-----8---8-------8-----8---8-------10-----7-------8-----8---8-------8-----8---8-------8------10--\---|
D|--8-----8---8-------8-----8---8-------10-----7-------8-----8---8-------8-----8---8-------8------10--\---|
 Rhythm
e|--x-----------------------------------x------x-------x-----------------------------------x------x---\---|
B|--x-----------------------------------x------x-------x-----------------------------------x------x---\---|
G|--10----------------------------------12-----9-------10----------------------------------10-----12--\---|
D|--10----------------------------------12-----9-------10----------------------------------10-----12--\---|
A|--8-----------------------------------10-----7-------8-----------------------------------8------10--\---|
D|--8-----------------------------------10-----7-------8-----------------------------------8------10--\---|

Anywhere there is a chord where you have to bar with your 3rd finger
 Example
e|--x----|
B|--10---|
G|--10---|
D|--10---|
A|--8----|
D|--8----|

You can just play a normal power chord
Like this
e|-x-----|
B|-x-----|
G|-10----|
D|-10----|
A|-8-----|
D|-8-----|


***********************************
| x   Dead note
| \  Slide down
************************************

            
            
Suggest correction
Creating personal tab
Creating personal tab
You can edit any tab online and save it as your Personal.

You can edit, replace or remove any tab part or add personal notes – all changes will be seen only by you.

Personal tabs can be accessed anytime from any device, even offline.
Learn more »
Give kudos to tab author, rate the tab!
1 2 3 4 5
comments
print report bad tab
guest
You may want to rate the tab now too:
select rating
Wanna post a correction for this tab? Suggest correction