Oops, an error
Loading. Please wait.

Readyfuels Tab

version 1
version 1

Intro

Whole song

Interactive

1,011 views 3 this week
1 commentread comment
1 2 3 4 5
1 last vote to show rating
add to favorites
launch autoscroll
font size
0
reset
how to read this tab
guitar tuner
×
Best way to learn
"Readyfuels"
Autoscroll
slow
fast
+/-
esc
set tempo
stop
----------------------------------------------------------------------------
                             Readyfuels - Anberlin
----------------------------------------------------------------------------
Artist: Anberlin
Song: Redyfuels (intro only)
From the CD:Blueprints For The Black Market
Tabbed by:Tyler
Email:PuppetMaster103@aol.com

Tuning:eBGDAD

e|-------------------------------------------------------------------------|
B|-------------------------------------------------------------------------|
G|-------------------------------------------------------------------------|
D|-------------------------------------------------------------------------|
A|-12--------------10-------------12--------------10-----------------------|
D|-----12--10--12------12--10--0------12--10--12------12--10--0------------|

play 2 times then other parts come in then play 4 more times 

| /  slide up
| \  slide down
| h  hammer-on
| p  pull-off
| ~  vibrato
| +  harmonic
| x  Mute note
============================================================================
Suggest correction
Give kudos to tab author, rate the tab!
1 2 3 4 5
comments
print report bad tab
1 comment total.
0 reply
mosquitohater93 20 Apr 04, 2008 03:47 PM

e|-------------------------------------------------------------|
B|------------------------------------------------------------------|
G|------------------------------------------------------------------|
D|-5-----0-3-0-----5-----0-3-0--------------------------------------|
A|-----3-------3-------3--------3-----------------------------------|
D|---0-----------0---0------------0---------------------------------|

THATS the correct way to play it.

guest
You may want to rate the tab now too:
select rating
Wanna post a correction for this tab? Suggest correction