Oops, an error
Loading. Please wait.

Time And Confusion bass

version 1
version 1

Whole song

Interactive

1,202 views 1 this week
no commentswrite comment
1 2 3 4 5
2 more votes to show rating
add to favorites
×
Save as Personal and add changes to this tab that will be seen only by you. Learn more ›
×
You can save this tab as Personal to edit and correct it or add notes. All changes will be seen only by you. Learn more »
launch autoscroll
font size
0
reset
guitar tuner
edit
Autoscroll
slow
fast
+/-
esc
set tempo
stop
Artist: Anberlin
Album: Never Take Friendship Personally
Song: Time and Confusion

First of all let me say, I did not make this I just 
transferred it from Power Tabs because I think it 
is easier to read and you can listen to 
the REAL music not their crappy imitation music.
EDIT: Sorry forgot a chorus in a certain part just realized
Fixed it with this submission

Intro                                                    Second Time End With
G|----------------------------------------------------|  |---------------|
D|----------------------------------------------------|x2|---------------|
A|-5-5-5-4-4-4-5--------------------------------------|  |5-5-5-4-4-4-5--|
D|---------------5---5----7---7----4-7-9--9-----------|  |--------------5|

Verse
G|---------------------------------------------------------------|
D|---------------------------------------------------------------| x2
A|---------------------------------------------------------------|
D|-555555-55555555-55555557-75555559-9999999-999999911-1212000000|

1st Time Through Verse    2nd Time Through Verse
G|---------------|            G|---------|
D|---------------|            D|---------|
A|---------------|            A|---------|
D|--00000555-----|            D|0000----4|

Pre Chorus
G|--------------------------------------------------------------------|
D|--------------------------------------------------------------------|
A|--------------------------------------------------------------------|
D|-4-4-4-5-5------4-4-4-4-5-5------4-4-4-4-5-5------4-2---2---4--5----|

Chorus
G|---------------------------------------------------------------------------|
D|---------------------------------------------------------------------------|
A|---------------------------------------------------------------------------|
D|-00000000-00000000-55555555-55555555-99977795-55555555-44-44-44--55-5-5----|

G|---------------------------------------------------------------------------|
D|---------------------------------------------------------------------------|
A|---------------------------------------------------------------------------|
D|-99999999-99999999-55555555-55555555--44-44-44-44-4--4--55-55-55-55--5-----|

Post-Chorus/Intro
G|---------------------------------------------------------------------------|
D|---------------------------------------------------------------------------|
A|-5-5-5-4-4-4-5---------------------------------5-5-5-4-4-4-5---------------|
D|---------------5---5----7---7----4-7-9--9--------------------5-------------|

Verse 2(listen to song for timing)
G|-----------------------------------------------------------|
D|-----------------------------------------------------------|  x2
A|---------------------------------------1st----2nd----------|
D|-[rest]---5-------7-9-----11-12-0----(5-5-5)(x-x-x-4)------|

Pre Chorus
G|--------------------------------------------------------------------------|
D|--------------------------------------------------------------------------|
A|--------------------------------------------------------------------------|
D|-4-4-4-5-5------4-4-4-4-5-5------4-4-4-4-5-5------4-2---2---4--5-xxxxxx---|

Chorus
G|---------------------------------------------------------------------------|
D|---------------------------------------------------------------------------|
A|---------------------------------------------------------------------------|
D|-00000000-00000000-55555555-55555555-99977795-55555555-44-44-44--55-5-5----|

G|---------------------------------------------------------------------------|
D|---------------------------------------------------------------------------|
A|---------------------------------------------------------------------------|
D|-99999999-99999999-55555555-55555555--44-44-44-44-4--4--55-55-55-55--5-----|


Interlude
G|---------------------------------------------------------------------------|
D|---------------------------------------------------------------------------|
A|---------------------------------------------------------------------------|
D|-7~9--9--9--9---9--9--9--9--7---7~9--9--9--9--9--9--9--9-------------------|

G|---------------------------------------------------------------------------|
D|---------------------------------------------------------------------------|
A|---------------------------------------------------------------------------|
D|-4~5--5--5--5---5--5--5--5--4---4~5--5--5--5--55555557-79999999-99999999---|

G|---------------------------------------------------------------------------|
D|---------------------------------------------------------------------------|
A|---------------------------------------------------------------------------|
D|-77777777-77777777-99977795-55555555-44-44-44-55--5--5---------------------|
Chorus
G|--------------------------------------------------|
D|--------------------------------------------------|
A|--------------------------------------------------|
D|-[Rest 4M]-99977795-55555555--44-44-44--55-5-5----|

G|-------------------------------------------------------------------------|
D|-------------------------------------------------------------------------|
A|-------------------------------------------------------------------------|
D|-99999999-99999999-55555555-55555555-44-44-44-44-4--4--55-55-55-55-5--5--|

Outro
G|-----------------------------------------------------------|
D|-----------------------------------------------------------|
A|-5-5-5-4-4-4-5------------------------------5-5-5-4-4-4-5--|
D|---------------5---5----7---7----4-7-9--9-----------------5| 

End On 
G|------|
D|------|
A|------|
D|--5~~~|

Enjoi.

            
            
Suggest correction
Creating personal tab
Creating personal tab
You can edit any tab online and save it as your Personal.

You can edit, replace or remove any tab part or add personal notes – all changes will be seen only by you.

Personal tabs can be accessed anytime from any device, even offline.
Learn more »
Give kudos to tab author, rate the tab!
1 2 3 4 5
comments
print report bad tab
guest
Wanna post a correction for this tab? Suggest correction