Oops, an error
Loading. Please wait.

Unwinding Cable Car Tab

version 1
version 1

Interactive

222,912 views 39 this week
30 commentsread comments
1 2 3 4 5
x 85
add to favorites
launch autoscroll
font size
0
reset
how to read this tab
guitar tuner
Autoscroll
slow
fast
+/-
esc
set tempo
stop
Help us to improve Ultimate-Guitar.com Take our survey!
×
Author
Difficulty
novice
This is a simple but awesome song. I've put in the changes so its pretty much perfect 
To sound exactly like the album track you need a 12 string to play the lead guitar, but 
guitar sounds fine.
Enjoy.

  C#  B   A
  0   0   0
  0   0   0
  6   4   2
  6   4   2
  4   2   0
  x   x   x


[Intro]
Guitar 1
e|-0-------0----------|
B|---4---4---4---4----|
G|-----6-------6------|  x8
D|--------------------|
A|--------------------|
E|--------------------|

Guitar 2
e|--------------------------------------------------------------------|
B|--------------------------------------------------------------------|
G|-------9-8-6--------------------------------------9-8-6-----9-8-6---|
D|----6--------9--------------11----------9---------------9---------9-|
A|--4---------------------9-----------7-------------------------------|
E|--------------------7-----------5-----------------------------------|

Guitar 1: C# B  A

Guitar 2:
e|------------------------------------|
B|------------------------------------|
G|-9-8-6------------------------------|     x2
D|-------9---2--4/-6---2-2/4-/6-------|
A|------------------------------4-/(2)|  <---(2) second time
E|------------------------------------|


[Verse]
Guitar 1:
C#      B                                        A
Emotive unstable, You're like an unwinding cable car.
C#            B                                        A
Listening for voices but it's the choices that make us who we are
C#          B
Go your own way. Even seasons have changed.
                A
Just burn those new leaves over,
C#      B
So self-absorbed, you've seemed to ignore the prayers
          A
that have already come about.

Guitar 2:
e|---------------------------|
B|---------------------------|
G|---------------------------|
D|---2-4-(4)/6--2-4-(4)/6----|
A|-4----------------------4--|
E|---------------------------|


[Chorus]
Guitar 1:
C#          B                                 A
This is the correlation between salvation and love
C#             B
 Don't drop your arms, I'll guard your heart
           A
With quiet words I'll lead you in.

Guitar 2:
e|------------------------------------|
B|------------------------------------|
G|-9-8-6------------------------------|     x2
D|-------9---------6----------6-------|
A|----------7--7/9-----7-7-7/9----4---|
E|------------------------------------|

C#       B                          A
La La La La, Lala La La, Lala La La La,
C#       B                          A
La La La La, Lala La La, Lala La La La


[Verse]

Backing away from the problem of pain. You never had a home.
You've been misguided. You're hiding in shadows, for so very long.
Don't you believe that you've been deceived?
That you're no better than...The hair in your eyes,
it never disguises what you're really thinking of.

[Chorus]

[Bridge]

Guitar 1:
A                    B
You're so brilliant, Don't soon forget           x3
A                    B
You're so brilliant, grace marked your heart.

Guitar 2:
e|-----0-----0-----0-----0-----2-----2-----2-----2-----2-|
B|---0-----0-----0-----0-----0-----0-----0-----0-----0---|
G|-2-----2-----2-----2-----2-----2-----2-----2-----2-----|
D|-------------------------------------------------------|
A|-------------------------------------------------------|
E|-------------------------------------------------------|

e|-----0-----0-----0-----0-----7-----7-----7-----7-------|
B|---0-----0-----0-----0----4-5---4-5---4-5---4-5--------|
G|-2-----2-----2-----2-----------------------------------|
D|-------------------------------------------------------| x3
A|-------------------------------------------------------|
E|-------------------------------------------------------|

C#       B                          A
La La La La, lala la la, lala la la la
C#       B                          A
La la la la, lala la la, lala la la la

[Chorus]

[Outro]

Guitar 1:

A     B      A       B

Guitar 2:
e|-----0-----0-----0-----0-----2-----2-----2-----2-----2-|
B|---0-----0-----0-----0-----0-----0-----0-----0-----0---|
G|-2-----2-----2-----2-----2-----2-----2-----2-----2-----|
D|-------------------------------------------------------|
A|-------------------------------------------------------|
E|-------------------------------------------------------|

e|-----0-----0-----0-----0-----7-----7-----7-----7-------|
B|---0-----0-----0-----0-----5-----5-----5-----5---------|
G|-2-----2-----2-----2-----4-----4-----4-----4-----------|
D|-------------------------------------------------------| x1
A|-------------------------------------------------------|
E|-------------------------------------------------------|



************************************

| /  Slide up 

************************************
Suggest correction
comments
print report bad tab
30 comments total. Showing first comments.
0 reply
lunchbocks 10 Mar 03, 2007 03:58 PM

Such a great song by an awesome band. The tabs work well but is there a way you can add a strumming pattern other than putting the chords with the lyrics? It can sometimes get confusing without a solid strum pattern

+1 reply
Geppetto 10 Mar 08, 2007 02:49 AM

Guitar 2:
e|------------------------------------|
B|------------------------------------|
G|-9-8-6------------------------------|
D|-------9----------------------------|
A|---------7--9-9/11---7--9/11----4---|
E|------------------------------------|


sounds a little smoother =)

+3 reply
Fealsamh 42 Mar 13, 2007 04:12 PM

Two things:

at the end of the main guitar two riff, the 4 pulls off into a 2, so it goes from that C# to a B.

During the Bridge, the chord progression should be A C# A B

Other than that, splendid

guest
You may want to rate the tab now too:
select rating
Wanna post a correction for this tab? Suggest correction