Oops, an error
Loading. Please wait.

Unwinding Cable Car tab

version 4
version 4

Interactive

5,905 views 3 this week
1 commentread comment
1 2 3 4 5
x 4
add to favorites
×
Save as Personal and add changes to this tab that will be seen only by you. Learn more ›
×
You can save this tab as Personal to edit and correct it or add notes. All changes will be seen only by you. Learn more »
launch autoscroll
font size
0
reset
how to read this tab
guitar tuner
edit
Autoscroll
slow
fast
+/-
esc
set tempo
stop
Author
Difficulty
"The Unwinding Cable Car"

=======================================================================
Tab By:Acoustic123
Standard tuning
E A D G B e

Intro
Guitar 11 
e]---------0-------]
B]------4-----4----]
G]---6------------6]
D]-----------------]
A]-----------------]
E]-----------------]

Guitar 1
e]------------------------------------------------------------]
B]-----------5h4--------------------------0----5h4-----5h4----]
G]---------------6p4-------------6-----------------6p4-----6p4]
D]---------6------------------4---------2---------------------]
A]------4------------------2---------0------------------------]
E]------------------------------------------------------------]

Intro 2
Guitar 11
e]---------0-----0-------0--]2x
B]---------0-----0-------2--]
G]---------6-----4-------2--]
D]---------6-----4-------2--]
A]---------4-----2-------0--]
E]---------0-----0-------0--]

Guitar 1
e]---------------------------------------]2x
B]---------5h4---------------------------]
G]-------------6p4-----------------------]
D]-------------------2--4--6---2--4--6---]
A]--------------------------------------4]
E]---------------------------------------]

Verse 1         "emotive unstable you're like an unwinding cable car"
Guitar 11
e]---------0-----0-------0--]
B]---------0-----0-------2--]
G]---------6-----4-------2--]
D]---------6-----4-------2--]
A]---------4-----2-------0--]
E]---------0-----0-------0--]

Guitar 1
e]-----------------------]3x   e]-------------------------]
B]-----------------------]     B]-------------------------]
G]-----------------------]     G]-------------------------]
D]---2--4--6---2--4--6---]     D]---2--4--6---------------]
A]----------------------4]     A]-----------7-7-9--7--6--4]
E]-----------------------]     E]-------------------------]


Chorus          "this is the correlation of salvation and love"Guitar 11
e]---------0-----0-------0--]
B]---------0-----0-------2--]
G]---------6-----4-------2--]
D]---------6-----4-------2--]
A]---------4-----2-------0--]
E]---------0-----0-------0--]

Guitar 1
e]---------------------------------------]2x
B]---------5h4---------------------------]
G]-------------6p4-----------------------]
D]-------------------2--4--6---2--4--6---]
A]--------------------------------------4]
E]---------------------------------------]

"La lalalala, la la la, la lala, la"
Guitar 1
e]---------------------------------------]2x
B]---------5h4---------------------------]
G]-------------6p4-----------------------]
D]-------------------2--4--6---2--4--6---]
A]--------------------------------------4]
E]---------------------------------------]

Verse 2      "Backing away from the problem of pain you never had a home"
Guitar 11
e]---------0-----0-------0--]
B]---------0-----0-------2--]
G]---------6-----4-------2--]
D]---------6-----4-------2--]
A]---------4-----2-------0--]
E]---------0-----0-------0--]

Guitar 1
e]-----------------------]3x   e]-------------------------]
B]-----------------------]     B]-------------------------]
G]-----------------------]     G]-------------------------]
D]---2--4--6---2--4--6---]     D]---2--4--6---------------]
A]----------------------4]     A]-----------7-7-9--7--6--4]
E]-----------------------]     E]-------------------------]


Chorus          "this is the correlation of salvation and love"
Guitar 11
e]---------0-----0-------0--]
B]---------0-----0-------2--]
G]---------6-----4-------2--]
D]---------6-----4-------2--]
A]---------4-----2-------0--]
E]---------0-----0-------0--]

Guitar 1
e]---------------------------------------]4x
B]---------5h4---------------------------]
G]-------------6p4-----------------------]
D]-------------------2--4--6---2--4--6---]
A]--------------------------------------4]
E]---------------------------------------]

Bridge     "You're so brilliant, don't soon forget"
Guitar 1
e]----0-0-0-0-----2-2-2-2------0-0-0-0------7-7-7-7]3x
B]---0-0-0-0-----0-0-0-0------0-0-0-0------7-7-7-7-]
G]--2-2-2-2-----2-2-2-2------2-2-2-2------4-4-4-4--]
D]-------------------------------------------------]
A]-------------------------------------------------]
E]-------------------------------------------------]

Guitar 2: Strum
    A2          C#m         A2           Bsus

Chorus          "this is the correlation of salvation and love"
Guitar 11
e]---------0-----0-------0--]
B]---------0-----0-------2--]
G]---------6-----4-------2--]
D]---------6-----4-------2--]
A]---------4-----2-------0--]
E]---------0-----0-------0--]

Guitar 1
e]---------------------------------------]6x
B]---------5h4---------------------------]
G]-------------6p4-----------------------]
D]-------------------2--4--6---2--4--6---]
A]--------------------------------------4]
E]---------------------------------------]

Last Verse
Guitar 1
e]----0-0-0-0-----2-2-2-2------0-0-0-0------7-7-7-7]1x
B]---0-0-0-0-----0-0-0-0------0-0-0-0------7-7-7-7-]
G]--2-2-2-2-----2-2-2-2------2-2-2-2------4-4-4-4--]
D]-------------------------------------------------]
A]-------------------------------------------------]
E]-------------------------------------------------]

Enjoy...

            
            
Suggest correction
Creating personal tab
Creating personal tab
You can edit any tab online and save it as your Personal.

You can edit, replace or remove any tab part or add personal notes – all changes will be seen only by you.

Personal tabs can be accessed anytime from any device, even offline.
Learn more »
comments
print report bad tab
1 comment total.
0 reply
Ratboy51190 10 Sep 15, 2012 02:23 PM

Hey, just a quick thing that's irking me a little... the bridge and the ending of the song as you have it posted:

e]----0-0-0-0-----2-2-2-2------0-0-0-0------7-7-7-7]1x
B]---0-0-0-0-----0-0-0-0------0-0-0-0------7-7-7-7-]
G]--2-2-2-2-----2-2-2-2------2-2-2-2------4-4-4-4--]
D]-------------------------------------------------]
A]-------------------------------------------------]
E]-------------------------------------------------]

Should actually be:

e]----0-0-0-0-----2-2-2-2------0-0-0-0------7-7-7-7]1x
B]---0-0-0-0-----0-0-0-0------0-0-0-0------5-5-5-5-]
G]--2-2-2-2-----2-2-2-2------2-2-2-2------8-8-8-8--]
D]-------------------------------------------------]
A]-------------------------------------------------]
E]-------------------------------------------------]

Other than that, great job on tabbing an awesome song =)

guest
You may want to rate the tab now too:
select rating
Wanna post a correction for this tab? Suggest correction