Oops, an error
Loading. Please wait.

Set Guitars To Kill Tab

version 1
version 1

Whole song

Interactive

4,783 views 6 this week
4 commentsread comments
1 2 3 4 5
x 3
add to favorites
launch autoscroll
font size
0
reset
how to read this tab
guitar tuner
Autoscroll
slow
fast
+/-
esc
set tempo
stop
Help us to improve Ultimate-Guitar.com Take our survey!
×
Author
Tuning
C G C F A D
-----------------------------------------------------------------------------
                             SET GUITARS TO KILL
                        And So I Watch You From Afar
-----------------------------------------------------------------------------

Tab updated: many important fixes added accordingly to my gtp version of this tab.

Tabbed by: Unsaidxpl
Email:unsaidxpl@bk.ru

==========================================================
Guitar 1

RIFF 1

Consider making right note duration

...E..E..E..Tuplet...S..E..E..S..S..S...E..E..E..Tuplet...S..E..E..S..S..S
D|------------------------------------|---------------------------------------|
A|------------------------------------|---------------------------------------|
F|-13-14-16-14h16h14-13-14-16-14h16h14|-12-14-16-14h16h14-12-14-16-14h16h14---|
C|------------------------------------|---------------------------------------|
G|------------------------------------|---------------------------------------|
C|------------------------------------|---------------------------------------|   x2

...E..E..E..Tuplet...S..E..E..S..E......E..E..E..Tuplet...S..E..E..S..S..S
D|------------------------------------|---------------------------------------|
A|------------------------------------|----------------------15---------------|
F|----14-16-14h16h14----14-16-14h16---|----14-16-14h16h14-16----16-14h16h14---|
C|-12----------------12---------------|---------------------------------------|
G|------------------------------------|-15------------------------------------|
C|------------------------------------|---------------------------------------|

After that: first section of RIFF 1 x4, third section, fourth section.
Then repeat the whole riff twice.

D|---------|
A|---------|
F|-14-14---|
C|-14-14---|  x32
G|-12-12---|
C|---------|


SOLO 1
Played with some very noisy overdrive or fuzz effect

D|------------------------------------------------------------------|
A|-9-9-9-9-9---9-9-9---9---9-10-9---8-8-8-8-8---8---8-10---10---8---|
F|------------------------------------------------------------------|
C|------------------------------------------------------------------|
G|------------------------------------------------------------------|
C|------------------------------------------------------------------|

D|---------------------------------------------------|
A|-15-15-15-15-15-15-15-15-15-15-15-15-15-15-15-15---|
F|-16-16-16-16-16-16-16-16-14-14-14-14-14-14-14-14---|
C|---------------------------------------------------|
G|---------------------------------------------------|
C|---------------------------------------------------|

SOLO 2

Make some guitar noise for one and a half bars, then slide from 2 to 14 on A string.
Then play this twice using staccato:

...E..E..E..S..E..E..E..S..E..E..E..E..S..E..E..E..E..E..S.
D|----------15-17-19----------15-17-19----------15-17-19-19-|
A|-15-17-19----------15-17-19----------15-17-19-------------|
F|----------------------------------------------------------|
C|----------------------------------------------------------|
G|----------------------------------------------------------|
C|----------------------------------------------------------|

...S..S..S..E..S..S..S..E..E..S..E..E..S..E..E..Q......E...E...E....
D|-19\15-19\15-------------------------------------------------------|
A|-------------15-15/19-19-19-19\15-15-15/19-19-19-----15--15--15-15-|
F|-----------------------------------------------------16--16--16-16-|
C|-------------------------------------------------------------------|
G|-------------------------------------------------------------------|
C|-------------------------------------------------------------------|

After solo:

D|-------------------------------------|-17--17--17--17-|
A|-17--17--17---19--19--19---20--20--20|-17--17--17--17-|
F|-16--16--16---16--16--16---16--16--16|-16--16--16--16-| x5
C|-------------------------------------|----------------|
G|-------------------------------------|----------------|
C|-------------------------------------|----------------|

The next part is very fast tremolo picking of 

D|---       D|-19
A|-15- and  A|---

letting them ring.


Then play this twice (with delay):

..............x3..............x1..
D|------17----------15------|--------------------------|
A|-19--------19-17-------17-|-15--15--15--12--12--12---|
F|--------------------------|--------------------------|
C|--------------------------|--------------------------|
G|--------------------------|--------------------------|
C|--------------------------|--------------------------|

RIFF 3 (played with octaver effect)

...E..E..S..E..E..S..E..E..S..E....E..E..S..E....E..E..S..S..E..
D|-------------------------------|-------------|----------------|
A|-------------------------------|-------------|-15-------------|
F|-------14-16-14----------------|-16-14-------|----16-14-14/16-|
C|-14-17----------17-14-17-12-12-|-------17-14-|----------------|
G|-------------------------------|-------------|----------------|
C|-------------------------------|-------------|----------------|

...E..E..S..E..E..S..E..E..S..E....E..E..S..E....Tremolo..Tremolo....
D|-------------------------------|-------------|--------------------|
A|-------------------------------|-------------|-15-------17--------|
F|-------14-16-14----------------|-16-14-------|--------------------|
C|-14-17----------17-14-17-12-12-|-------17-14-|--------------------|
G|-------------------------------|-------------|--------------------|
C|-------------------------------|-------------|--------------------|

Play it twice.

Then start playing RIFF 3 and ENDING (see below)

===========================================
GUITAR 2

INTRO (distortion)

D|------------------|
A|------------------|
F|-4---4---4---4-2--|
C|-2---2---2---2-0--|
G|-2---2---2---2-0--|
C|-2---2---2---2-0--|


RIFF1

Played twice

---------x6------------|--------------------x1---------------------------|
...tuplet...E..E..E....
D|-10p12p0-------------|-12-10-10-10-10-8-8-8-8-12-12-12-12-------------|
A|----------12-10-12---|------------------------------------12-12-12-12-|
F|---------------------|------------------------------------------------|
C|---------------------|------------------------------------------------|
G|---------------------|------------------------------------------------|
C|---------------------|------------------------------------------------|

Bridge

D|---------|
A|-15-15---|
F|-14-14---|
C|-14-14---|  x8
G|---------|
C|---------|

When all other instruments stop for a few seconds:

D|----------------------------------|
A|-12-12---12-12-----15--12--15-----|
F|--9--9----9--9-----16--12--16-----| x2
C|----------------------------------|
G|----------------------------------|
C|----------------------------------|


RIFF 2
Played throughout SOLO 1 and SOLO 2

D|-----------------------------------------|
A|-----------------------------------------|
F|-11-9-----9-11---------14-14-16-14-------|
C|--9-9-----9--9---------12-12-12-12-------|  x3
G|-----------------------------------------|
C|-----------------------------------------|

D|-----------------------------------------|
A|-----------------------------------------|
F|-11-9-----9-11---------14---14---14---14-|
C|--9-9-----9--9---------12---12---12---12-|
G|-----------------------------------------|
C|-----------------------------------------|

RIFF 3
Repeat almost until ENDING

D|---------------------------------------|
A|---------------------------------------|
F|-16~--14~--16~--14~--16~--14~--12~--9~-|
C|--x----x----x----x----x----x----x---x--|
G|-14~--12~--14~--12~--14~--12~--10~--7~-|
C|---------------------------------------|

right before :

D|-------|
A|-------|
F|-/21---|   x4
C|---x---|
G|-/19---|
C|-------|

ENDING (distortion)

..strumming....E.E.E.E..
D|---|---|---|---------|
A|---|---|---|---------|
F|-4-|-4-|-4-|-4-4-2-2-|
C|-2-|-2-|-2-|-2-2-0-0-| x3
G|-2-|-2-|-2-|-2-2-0-0-|
C|-2-|-2-|-2-|-2-2-0-0-|

..strumming....E.E.E.E..
D|---|---|---|---------|---|
A|---|---|---|---------|---|
F|-4-|-4-|-4-|-2-2-2-2-|-4-|
C|-2-|-2-|-2-|-0-0-0-0-|-2-|
G|-2-|-2-|-2-|-0-0-0-0-|-2-|
C|-2-|-2-|-2-|-0-0-0-0-|-2-|

You can also check my gtp version of this tab, it's more detailed.

************************************

NOTES:
E - Eight note
S - Sixteenth note
Q- Quarter note
"Tuplet" stands for 16th note 3-tuplet

************************************

| /   slide up
| \   slide down
| ~   vibrato
| x   Mute note
| b   Bend

************************************
Suggest correction
Give kudos to tab author, rate the tab!
1 2 3 4 5
comments
print report bad tab
4 comments total. Showing first comments.
+1 reply
Soeplepel 37 Feb 21, 2012 02:47 PM

It's in drop C

0 reply
Logan6 10 Mar 09, 2012 11:30 PM

Solid attempt but something is missing. I'm not sure if it's the tuning or what but there's something not quite right. Maybe edit it? Regardless I'm glad that at least someone out there is giving us tabs for ASIWYFA.

0 reply
Unsaidxpl 623 Mar 15, 2012 03:30 PM

I'll try to make a gtp version if this soon, hope it will be more clear

guest
You may want to rate the tab now too:
select rating
Wanna post a correction for this tab? Suggest correction