Oops, an error
Loading. Please wait.

Du Er Min Store Kaerlighed Tab

3,641 views 1 this week
no commentswrite comment
1 2 3 4 5
3 more votes to show rating
add to favorites
launch autoscroll
font size
0
reset
how to read this tab
guitar tuner
Autoscroll
slow
fast
+/-
esc
set tempo
stop
Help us to improve Ultimate-Guitar.com Take our survey!
×
Author
Difficulty
novice
|-------0---------------0--------|
|-----2---2-----------0---0------|
|---2-------2-------1-------1----|
|-------------2---------------2--|
|-0---------------2--------------|
|--------------------------------|
      Solen skinner…
|--------2-----------------------|
|------3---3-----------2-----0---|
|----2-------2--------2-2---1-1--|
|--0-----------0-----------------|
|-------------------0------2-----|
|--------------------------------|
      Vi står…

|-------0---------------0--------|
|-----2---2-----------0---0------|
|---2-------2-------1-------1----|
|-------------2---------------2--|
|-0---------------2--------------|
|--------------------------------|
     Du er stærk…
|--------2-----------------------|
|------3---3-----------2-----0---|
|----2-------2--------2-2---1-1--|
|--0-----------0-----------------|
|-------------------0------2-----|
|--------------------------------|
      Jeg spejler mig…


|-------0---------------0--------|
|-----2---2-----------0---0------|
|---2-------2-------1-------1----|
|-------------2---------------2--|
|-0---------------2--------------|
|--------------------------------|
            Din krop den…

|-------1---------------0--------|
|-----1---1-----------0---0------|
|---1-------1-------1-------1----|
|-------------2----2----------2--|
|-2---------------2-------------2|
|--------------------------------|
     Jeg ved du…


|-------0---------------0--------|
|-----2---2-----------0---0------|
|---2-------2-------1-------1----|
|-------------2---------------2--|
|-0---------------2--------------|
|--------------------------------|
      Du er der…
|--------2-----------------------|
|------3---3-----------2-----0---|
|----2-------2--------2-2---1-1--|
|--0-----------0-----------------|
|-------------------0------2-----|
|--------------------------------|
      Jeg gi’r dig…

|-------0---------------0--------|
|-----2---2-----------0---0------|
|---2-------2-------1-------1----|
|-------------2---------------2--|
|-0---------------2--------------|
|--------------------------------|
     Jeg fløjter blot…
|--------2-----------------------|
|------3---3-----------2-----0---|
|----2-------2--------2-2---1-1--|
|--0-----------0-----------------|
|-------------------0------2-----|
|--------------------------------|
      Med spidset…


|-------0---------------0--------|
|-----2---2-----------0---0------|
|---2-------2-------1-------1----|
|-------------2---------------2--|
|-0---------------2--------------|
|--------------------------------|
            Pisken smælder…

|-------1---------------0--------|
|-----1---1-----------0---0------|
|---1-------1-------1-------1----|
|-------------2----2----------2--|
|-2---------------2-------------2|
|--------------------------------|
          Jeg har kun halvpart…

A	D     E	  A
[chorus]
Du er min store kærlighed
A	D       E       A
Drømmen om dig den varer ved
A        D		E	F#M
Vennerne sir’ at det aldrig vil gå
A	 D     E      A
Men det vil vi to ride på


A		  E
Jeg husker tydeligt den dag du blev min
D	         A    E
Husker kysset under havnemolen
A                    E
Men mine venner sir’ at jeg et svin
D                          A   E
At jeg(er)til grin på hele rideskolen
A                      E
De sir’ jeg(er)vammel, hver gang de ser mig stå
F#M               E
På min skammel så jeg kan nå (uhåuh)


[chorus]
A	D     E	  A
Du er min store kærlighed
A	D       E       A
Drømmen om dig den varer ved
A        D		E	F#M
Vennerne sir’ at det aldrig vil gå
A	 D     E      A
Men det vil vi to ride på

[bridge]
F#M	    E
Bare jeg ku forklare,
     D		      E
Bare folk ville prøve at forstå
    F#M         E          D
Man sagtens kan bruge sin forstand
       F#M        D           E        A
Selvom man har en kæreste med sadel på


[chorus]
E	A     H	  E
Du er min store kærlighed
E	A       H       E
Drømmen om dig den varer ved
E        A		H	C#M
Vennerne sir’ at det aldrig vil gå
E	 A     H      E
Men det vil vi to ride på

[chorus]
G	D     C	  G
Du er min store kærlighed
G	D       C       G
Drømmen om dig den varer ved
G        D		C	EM
Vennerne sir’ at det aldrig vil gå
G	 D     C      G
Men det vil vi to ride på

[chorus]
G	D     C	  G
Du er min store kærlighed
G	D       C       G
Drømmen om dig den varer ved
G        D		C	EM
Vennerne sir’ at det aldrig vil gå
G	 D     C      G
Men det vil vi to ride på

G	 D     C      G
Men det vil vi to ride på

[slow down]

Notice that the chorus change chords 2 times. You have to listen to the sound and follow 
with your voice when you sing.

By Jacob Horsager Nielsen [jacobhorsager@hotmail.com]
If there are any corrections please email me
Suggest correction
Give kudos to tab author, rate the tab!
1 2 3 4 5
comments
print report bad tab
guest
You may want to rate the tab now too:
select rating
Wanna post a correction for this tab? Suggest correction