Oops, an error
Loading. Please wait.

Luk Drommene Ind Tab

990 views 33 this week
no commentswrite comment
1 2 3 4 5
x 3
add to favorites
launch autoscroll
font size
0
reset
how to read this tab
guitar tuner
Autoscroll
slow
fast
+/-
esc
set tempo
stop
Help us to improve Ultimate-Guitar.com Take our survey!
×
Author
Difficulty
intermediate
    ____________________
   / Anders Matthesen  /  " Fuck Wham!
  / Luk Drømmene Ind  /  Det her er seriøst verdens bedste julesang! "
 / Jul på Vesterbro  /  - citat LouZe89
/___________________/  

********************************************************************************
 Akkorderne i den reelle toneart, Db dur, kan du finde her - følg linket:
 www.ultimate-guitar.com/tabs/a/anders_matthesen/luk_droemmene_ind_crd.htm
********************************************************************************

Groovet i denne sang er lidt speciel: Bassen slår bastonen an på 1-slaget,
og guitaren markerer først på 1-og.



Capo på 1. bånd

 1. & 2. Vers:
 2/4
  C             Em            Am            Am
|------0--0-0-|------0--0-0-|------0--0-0-|------0--0-0-|
|------1--1-1-|------0--0-0-|------1--1-1-|------1--1-1-|
|------0--0-0-|------0--0-0-|------2--2-2-|------2--2-2-|
|------2--2-2-|------2--2-2-|------2--2-2-|------2--2-2-|
|---3--3--3-3-|------2--2-2-|---0--0--0-0-|---0--0--0-0-|
|-------------|---0--0--0-0-|-------------|-------------|
1. Jeg syns' at julemanden er for klam
2. Har aldrig været særlig vild med glögg

  Bb            F             C             Bb     F
|------1--1-1-|------1--1-1-|------0--0-0-|----1-1----1-1-|
|------3--3-3-|------1--1-1-|------1--1-1-|----3-3----1-1-|
|------3--3-3-|------2--2-2-|------0--0-0-|----3-3----2-2-|
|------3--3-3-|------3--3-3-|------2--2-2-|----3-3----3-3-|
|---1--1--1-1-|------3--3-3-|---3--3--3-3-|----1-1----3-3-|
|-------------|---1--1--1-1-|-------------|-----------1-1-|
 Han befamler børn, mens voksne går og handler
 Jeg syns' det smager lidt lissom Sverige lugter

  C             Em            Am            Am
|------0--0-0-|------0--0-0-|------0--0-0-|------0--0-0-|
|------1--1-1-|------0--0-0-|------1--1-1-|------1--1-1-|
|------0--0-0-|------0--0-0-|------2--2-2-|------2--2-2-|
|------2--2-2-|------2--2-2-|------2--2-2-|------2--2-2-|
|---3--3--3-3-|------2--2-2-|---0--0--0-0-|---0--0--0-0-|
|-------------|---0--0--0-0-|-------------|-------------|
 Er ik' den store fan af ris a la mam
 Og helt ærlig, jeg fatter ikke en pløk

  Bb            F             Gsus4         G
|------1--1-1-|------1--1-1-|------3--3-3-|------3--3-3-||
|------3--3-3-|------1--1-1-|------1--1-1-|------0--0-0-||
|------3--3-3-|------2--2-2-|------0--0-0-|------0--0-0-||
|------3--3-3-|------3--3-3-|------0--0-0-|------0--0-0-||
|---1--1--1-1-|------3--3-3-|------x--x-x-|------x--x-x-||
|-------------|---1--1--1-1-|---3--3--3-3-|---3--3--3-3-||
 Jeg ville hel're spise fæces fyldt med mandler
 Af hvorfor nelliker hører til i citrusfrugter

  Am            G             F             C
|------0--0-0-|------3--3-3-|------1--1-1-|------0--0-0-|
|------1--1-1-|------0--0-0-|------1--1-1-|------1--1-1-|
|------2--2-2-|------0--0-0-|------2--2-2-|------0--0-0-|
|------2--2-2-|------0--0-0-|------3--3-3-|------2--2-2-|
|---0--0--0-0-|------x--x-x-|------3--3-3-|---3--3--3-3-|
|-------------|---3--3--3-3-|---1--1--1-1-|-------------|
 Og de folk, der farver konfekten grøn har jeg svært ved at forstå
 Men jeg smiler stadig på trods af dadler og julegavespil

  Am            Em            F     D/F#    Gsus4 G
|------0--0-0-|------0--0-0-|-------------|-3-----3-----||
|------1--1-1-|------0--0-0-|-1-----3-----|-1-----0-----||
|------2--2-2-|------0--0-0-|-2-----2-----|-0-----0-----||
|------2--2-2-|------2--2-2-|-3-----0-----|-0-----0-----||
|---0--0--0-0-|------2--2-2-|-3-----x-----|-x-----x-----||
|-------------|---0--0--0-0-|-1-----2-----|-3-----3-----||
 Og jeg ka' heller ik' se den fede idé ved en gedebuk af strå
 For jeg ved at julen, den er og blir præcis, hvad man gør den til, for




 Omkvæd:
(Akkorderne her i omkvæd spilles med samme rytme som i versene.)

     C     F     G     C     C     F    D/F#   G
||---0--|--1--|--3--|--0--|--0--|--1--|--2--|--3--|
||o--1--|--1--|--0--|--1--|--1--|--1--|--3--|--0--|
||---0--|--2--|--0--|--0--|--0--|--2--|--2--|--0--|
||---2--|--3--|--0--|--2--|--2--|--3--|--0--|--0--|
||o--3--|--3--|--x--|--3--|--3--|--3--|--x--|--x--|
||------|--1--|--3--|-----|-----|--1--|--2--|--3--|
1. Intet slår den følelse, man får, når det' December
   Af tryghed og forventning, harmoni og barnesind
2. Intet slår den følelse, man får, når det' December
   Du ka' spille nok så smart, du ka' gå rundt og være cool


 1.
   C     F     Em    Am   Dm7   C/E    F   Gsus4 G
|--0--|--1--|--0--|--0--|--1--|--0--|--1--|--3---3---||
|--1--|--1--|--0--|--1--|--1--|--1--|--1--|--1---0--o||
|--0--|--2--|--0--|--2--|--2--|--0--|--2--|--0---0---||
|--2--|--3--|--2--|--2--|--0--|--2--|--3--|--0---0---||
|--3--|--3--|--2--|--0--|-----|--3--|--3--|--x---x--o||
|-----|--1--|--0--|-----|-----|--0--|--1--|--3---3---||
 Og hvis du syns' du bare har det hårdt og går og kæmper
 Så luk din røv, luk hjertet op og luk drømmene ind


 2.
   C     F    Em/G   Am   Dm7    F   Gsus4 G     C
|--0--|--1--|--0--|--0--|--1--|--1--|--3---3--|--0--||
|--1--|--1--|--0--|--1--|--1--|--1--|--1---0--|--1--||
|--0--|--2--|--0--|--2--|--2--|--2--|--0---0--|--0--||
|--2--|--3--|--2--|--2--|--0--|--3--|--0---0--|--2--||
|--3--|--3--|--x--|--0--|-----|--3--|--x---x--|--3--||
|-----|--1--|--3--|-----|-----|--1--|--3---3--|-----||
 Og du ka' prøve at flygte, men du ved, du ik' ka' gem' dig
 Og pluds'lig blir man smittet med en glædelig jul




 C-stykke:
Her er den akustiske guitar ude. Akkorderne bliver spillet af keyboard.
En clean elektrisk guitar spiller disse brudte akkorder.

  Dm9       G7/13     Dm9       G7/13
|-----0---|-----0---|-----0---|-----0---|
|-------3-|-------3-|-------3-|-------3-|
|---2-----|---0-----|---2-----|---0-----|
|-3-------|-3-------|-3-------|-3-------|
|---------|---------|---------|---------|
|---------|---------|---------|---------|
 Tuborgs juletegnefilm er fesen og stupid

  Em7       Am7       Em7       Am7
|-----0---|-----0---|-----0---|-----0---|
|-------3-|-------1-|-------3-|-------1-|
|---0-----|---0-----|---0-----|---0-----|
|-2-------|-2-------|-2-------|-2-------|
|---------|---------|---------|---------|
|---------|---------|---------|---------|
 Syns at Søren Banjomus, han bare sku' tage at skride

  Dm9       G7/13     Dm9       G7/13
|-----0---|-----0---|-----0---|-----0---|
|-------3-|-------3-|-------3-|-------3-|
|---2-----|---0-----|---2-----|---0-----|
|-3-------|-3-------|-3-------|-3-------|
|---------|---------|---------|---------|
|---------|---------|---------|---------|
 Og Nissebanden, det er da det værste spild af tid

  C         F(add9)   Gsus4     G
|-----3---|-----3---|-----3---|---------|---------|---------|
|-------1-|-------1-|-------1-|-----0---|---------|---------|
|---0-----|---2-----|---0-----|---0---0-|--break--|--break--|
|-2-------|-3-------|-0-------|-0-------|---------|---------|
|---------|---------|---------|---------|---------|---------|
|---------|---------|---------|---------|---------|---------|
 Men når bare det er jul, så betyder det ik' en skid




 Omkvæd:
Samme akkorder som før. Gentag de sidste 4 takter.




26th /December /09
Just mail me at Maitinin@gmail.com with questions, comments and corrections!
------------------------------------------------------------------------------


   The last 11 years, I have generated 10,418,000 views and 815 top-rated tabs for this site.
   If you want to support an eager contributor like me, check out my own site:


   _____ http://www.PlayLikeTheGreats.com _____


   Here I will continue uploading my transcriptions - and hopefully make a bit more than nothing.

   Best regards,
   Maitinin
Suggest correction
Give kudos to tab author, rate the tab!
1 2 3 4 5
comments
print report bad tab
guest
You may want to rate the tab now too:
select rating
Wanna post a correction for this tab? Suggest correction