Oops, an error
Loading. Please wait.

Quangs Sang Tab

version 1
version 1

Whole song

4,088 views 3 this week
no commentswrite comment
1 2 3 4 5
2 more votes to show rating
add to favorites
launch autoscroll
font size
0
reset
how to read this tab
guitar tuner
Autoscroll
slow
fast
+/-
esc
set tempo
stop
Help us to improve Ultimate-Guitar.com Take our survey!
×
Author
Difficulty
This is the Danish song by Anders Matthesen (a.k.a "Anden" in English "The Duck") 
"Quangs sang" in English "Quangs song" about a little 7 years old boy from 
Thailand named Quang which life sucks. The morale is that you should be happy with 
your life and stop complaining. He tells it in a very funny way and you should try 
using google translate to find out what the text means.

Good luck and btw it's my first tab. Plz say if there's any wrongs!

Verse:

e|-------|-----0----------3-----------1-----------0---|
B|-------|-----1----------3-----------1-----------1---|
G|-------|---0---0------0---0-------2---2-------0---0-|
D|-------|--------------------------------------------|
A|---0-2-|-3----------------------------------3-------|
E|-3-----|------------3-----------1-------------------|
         Her er en historie om en dreng der hedder Quang
e|-----1----------0-----------2-----------3---|Here you can clap 2 times on
B|-----1----------1-----------1-----------3---|the guitar instead of playing:
G|---2---2------0---0-------2---2-------0---0-|e|---3---|
D|------------------------0-------------------|B|---3---|
A|------------3-------------------------------|G|-0---0-|
E|-1----------------------------------3-------|D|-------|
 Han er syv år bor i Thailand og hans arbejdsdag er lang

e|-----1----------0-----------2-----------3---|
B|-----1----------1-----------1-----------3---|
G|---2---2------0---0-------2---2-------0---0-|
D|------------------------0-------------------|
A|------------3-------------------------------|
E|-1----------------------------------3-------|
 Han står tidligt op om morgenen og går meget sent i seng

e|-----1----------0-----------3-----------0---|
B|-----1----------1-----------3-----------1---|
G|---2---2------0---0-------0---0-------0---0-|
D|--------------------------------------------|
A|------------3-----------------------3-------|
E|-1----------------------3-------------------|
 For Quang har nok at tænke på skønt han bare er en dreng


Chorus:

       F              C           G          C
Så hvordan kan du dog sige, at du ikke er tilfreds
       F		 C		    D7			G
At din far er dum og din mor er sur og dine lektier gi'r dig stress
       F	 	C	       F	    C
Du har alt hvad du skal bruge - du har tøj og flæskesteg
	  F		C		 G		C
Og der er tusind børn i verden der ville ønske de var dig
Suggest correction
Give kudos to tab author, rate the tab!
1 2 3 4 5
comments
print report bad tab
guest
You may want to rate the tab now too:
select rating
Wanna post a correction for this tab? Suggest correction