Oops, an error
Loading. Please wait.

I Miss That Whip Tab

61 views 21 this week
no commentswrite comment
1 2 3 4 5
3 more votes to show rating
add to favorites
launch autoscroll
font size
0
reset
how to read this tab
guitar tuner
Autoscroll
slow
fast
+/-
esc
set tempo
stop
Help us to improve Ultimate-Guitar.com Take our survey!
×
Author
Difficulty
Capo
novice
4th fret
About this tab version
Song pretty much repeats the entire time. Smooth song, sounds nice. Mixes up a bit throughout with hammer-ons and strumming patterns. Was this info helpful? Yes No
[Intro]
e|-4---4--2---2---|-0---0--0---0---|-4---4--2-------|-0---0--0-----0-|
A|-4h5-5--2----2--|-0---0--2----2--|-4h5-5--2-------|-0---0--2-----2-|
D|-4---4--2-----2-|-1---1--2-----2-|-4---4--2-------|-1---1--2-----2-|
G|-4h6-6--4-------|-2---2--2-------|-4h6-6--4-------|-2---2--2-----2-|
B|-4---4--4--4----|-2---2--0--0----|-4---4--4-------|-2---2--0-----0-|
E|-x---x--x-------|-0---0--x-------|-x---x--x-------|-0---0--x-----x-|

[Verse]
e|-4---4--2--2-22-|-0---0--0---0---|
A|-5---5--2--2-22-|-0---0--2----2--|
D|-4---4--2--2-22-|-1---1--2-----2-|
G|-6---6--4--4-44-|-2---2--2-------| 
B|-4---4--4--4-44-|-2---2--0--0----|
E|-x---x--x--x-xx-|-0---0--x-------|

repeat for entire song 
*************************

|h  Hammer-on
|x  Dead Note

*************************
Suggest correction
Give kudos to tab author, rate the tab!
1 2 3 4 5
comments
print report bad tab
guest
You may want to rate the tab now too:
select rating
Wanna post a correction for this tab? Suggest correction