Oops, an error
Loading. Please wait.

The Bird bass

700 views 18 this week
no commentswrite comment
1 2 3 4 5
2 more votes to show rating
add to favorites
×
Save as Personal and add changes to this tab that will be seen only by you. Learn more ›
×
You can save this tab as Personal to edit and correct it or add notes. All changes will be seen only by you. Learn more »
launch autoscroll
font size
0
reset
guitar tuner
edit
Autoscroll
slow
fast
+/-
esc
set tempo
stop
Author
Difficulty
About this tab version
Synth bass arranged for 5 string electric bass. Was this info helpful? Yes No
[Intro]

8 Bars Rest

[Verse 1]

G|-----------------|-----------------|-----------------|-----------------|
D|-----------------|-----------------|---1---1---1---1-|---1---1-1-1---1-|
A|---1---1---1---1-|---1---1-1-1---1-|-----------------|-----------------|
E|-----------------|-----------------|-----------------|-----------------|
B|-----------------|-----------------|-----------------|-----------------|
   E E E E E Q   E   E Q   E E Q   E   E Q   Q   Q   E   E Q   E E Q   E

G|-----------------|-----------------|-----------------|-----------------|
D|-----------------|-----------------|-----------------|-----------------|
A|---4---4---4---4-|---4---4-4-4---4-|---4---4---4---4-|-4-4---4-4-4---4-|
E|-----------------|-----------------|-----------------|-----------------|
B|-----------------|-----------------|-----------------|-----------------|
   E E E E E Q   E   E Q   E E Q   E   E Q   Q   Q   E   E Q   E E Q   E

G|-----------------|-----------------|-----------------|-----------------|
D|-----------------|-----------------|-----------------|-----------------|
A|-----------------|-----------------|-----------------|-----------------|
E|---2---2---2---2-|---2---2-2-2---2-|---2---2---2---2-|---2---2-2-2---2-|
B|-----------------|-----------------|-----------------|-----------------|
   E E E E E Q   E   E Q   E E Q   E   E Q   Q   Q   E   E Q   E E Q   E

G|-----------------|-----------------|-----------------|-----------------|
D|-----------------|-----------------|-----------------|-----------------|
A|-----------------|-----------------|-----------------|-----------------|
E|---0---0---0---0-|---0---0-0-0---0-|---0---0---0---0-|---0---0-0-0---0-|
B|-----------------|-----------------|-----------------|-----------------|
   E E E E E Q   E   E Q   E E Q   E   E Q   Q   Q   E   E Q   E E Q   E

[Verse 2]

G|-----------------|-----------------|-----------------|-----------------|
D|-----------3-----|---3-------------|-----------------|-----------------|
A|---1---1-------4-|-------4---1-----|-----------6---6-|---6---6---6-5-4-|
E|-----------------|-------------1---|-----------------|-----------------|
B|-----------------|-----------------|---4---4---------|-----------------|
   E E E E E Q   E   E Q   Q   E Q     E Q   Q   Q   E   E Q   Q   E E E

G|-----------------|-----------------|-----------------|-----------------|
D|-----------------|-----------------|-----------------|-----------------|
A|---4---4---4-----|---4---4-4-4---4-|---4---4---4---4-|-4-4---4-4-4---4-|
E|-------------4---|-----------------|-----------------|-----------------|
B|---------------2-|-----------------|-----------------|-----------------|
   E E E E E E E E   E Q   E E Q   E   E Q   Q   Q   E   E Q   E E Q   E

G|-----------------|-----------------|-----------------|-----------------|
D|-----------------|-----------------|-----------------|-----------------|
A|-----------------|-----------------|-----------------|-----------------|
E|---2---2---2---2-|---2---2-2-2---2-|---2---2---2---2-|---2---2-2-2---2-|
B|-----------------|-----------------|-----------------|-----------------|
   E E E E E Q   E   E Q   E E Q   E   E Q   Q   Q   E   E Q   E E Q   E

G|-----------------|-----------------|-----------------|-----------------|
D|-----------2-----|-----------------|-----------------|-----------------|
A|-----------------|-----------------|-----------------|-----------------|
E|---0---0-------0-|---0---0-0-0---0-|---0---0---0---0-|-----------------|
B|-----------------|-----------------|-----------------|-----------------|
   E E E E E Q   E   E Q   E E Q   E   E Q   Q   Q   E   W

[Bridge]

G|-----------------|-----------------|-----------------|-----------------|
D|-----------------|-----------------|-----------------|-----------------|
A|---1-------4---1-|-1---4-3---1-----|-----------6---6-|---6---6---6-5-4-|
E|-------1---------|---1---------1---|-----------------|-----------------|
B|-----------------|-----------------|---4---4---------|-----------------|
   E Q   Q   Q   E   E E E Q   E Q     E Q   Q   Q   E   E Q   Q   E E E

G|-----------------|-----------------|-----------------|-----------------|
D|-----------------|-----------------|-----------------|-----------------|
A|---4---4---4---4-|---4---4-4-4---4-|---4---4---4---4-|-4-4---4-4-------|
E|-----------------|-----------------|-----------------|-----------5-4-3-|
B|-----------------|-----------------|-----------------|-----------------|
   E E E E E Q   E   E Q   E E Q   E   E Q   Q   Q   E   E Q   E E E E E

G|-----------------|-----------------|-----------------|-----------------|
D|-----------------|-----------------|-----------------|-----------------|
A|-----------4-6/8-|---6-4-----------|-----------4-6/8-|---6-4-----------|
E|---4---6---------|-------6---4-1-2-|---4-6-----------|-------6---4-2-4-|
B|-----------------|-----------------|-----------------|-----------------|
   E Q   Q   E E E   E E E Q   E E E   E Q   Q   E E E   E E E Q   E E E

G|-----------------|-----------------|-----------------|-----------------|
D|-----------------|-----------------|-----------------|-----------------|
A|-----------------|-----------------|-----------------|-----------------|
E|---0---0---0---0-|---0---0-0-0---0-|---0---0---0-----|-------0-0-0-7\--|
B|-----------------|-----------------|-----------------|-----------------|
   E E E E E Q   E   E Q   E E Q   E   E Q   Q   Q   E   Q.    E E E Q

G|-----------------|-----------------|-----------------|-----------------|
D|-----------------|-----------------|-----------------|-----------------|
A|---1---1---1---1-|-1-1---1-1-------|-------6---------|-----------------|
E|-----------------|-----------1-0---|-----------------|-----------------|
B|-----------------|---------------4-|---4-------4---4-|-4-4---4---4-3-2-|
   E E E E E Q   E   E Q   E E E E E   E Q   Q   Q   E   E Q   Q   E E E

G|-----------------|-----------------|-----------------|-----------------|
D|-----------------|-----------------|-----------------|-----------------|
A|-------4---------|-----------------|-----------4-----|-----------------|
E|-----------------|-----0-1-1-------|-----------------|-----------------|
B|---2-------2---2-|---4-------2---2-|---2---2-------2-|---2---2---------|
   E Q   Q   Q   E   E E E E E Q   E   E Q   Q   Q   E   E Q   Q H

G|-----------------|-----------------|-----------------|-----------------|
D|-----------4-4-4-|-----------------|-----------3-----|-----------3-----|
A|-----------------|-----------------|-----------------|-----------------|
E|-2---------------|-------2-2---2-4-|-1-------------1-|-1-1---1-1---1-1-|
B|-----------------|-----------------|-----------------|-----------------|
   H       E E E E   Q.    E Q   E E   Q.    Q   Q   E   E Q   E E E E E

G|-----------------|-----------------|-----------------|-----------------|
D|-----------------|-----------------|-----------------|-----------------|
A|-----------4---6-|---------4-6-----|-----------------|-----------------|
E|-----------------|-----------------|-4---------------|(4)--------------|
B|-4---------------|-----------------|-----------------|-----------------|
   Q.    Q   Q   E   H       E Q   E   W                 W

[Verse 3]

8 Bars Rest

G|-----------------|-----------------|-----------------|-----------------|
D|-----------------|---------------4-|(4)--------------|-----------------|
A|-----------------|-----------------|-----------------|-----------------|
E|/2---------------|-----------------|-----------------|---------------2-|
B|-----------------|-----------------|-----------------|-----------------|
   W                 H        Q.   E   W                 H        Q.   E

G|-----------------|-----------------|-----------------|-----------------|
D|-----------------|-----------------|-----------------|-----------------|
A|-----------------|-----------------|-----------------|-----------------|
E|-0---------------|---0---0---0---0-|---0---0---0---0-|---0---0---0---0-|
B|-----------------|-----------------|-----------------|-----------------|
   W                 E E E Q   E E E   E E E Q   E E E   E E E Q   E E E

[Verse 4]

G|-----------------|-----------------|-----------------|-----------------|
D|-----------------|-----------------|---1---1---1---1-|---1---1-1-1---1-|
A|---1---1---1---1-|---1---1-1-1---1-|-----------------|-----------------|
E|-----------------|-----------------|-----------------|-----------------|
B|-----------------|-----------------|-----------------|-----------------|
   E E E E E Q   E   E Q   E E Q   E   E Q   Q   Q   E   E Q   E E Q   E

G|-----------------|-----------------|-----------------|-----------------|
D|-----------------|-----------------|-----------------|-----------------|
A|---4---4---------|-----------4-5-6-|-----------------|-----------------|
E|-----------------|-----------------|-----------------|-----------------|
B|-----------2---2-|---2---2-2-------|---2---2---2---2-|---2---2-2-2---2-|
   E E E E E Q   E   E Q   E E Q   E   E Q   Q   Q   E   E Q   E E Q   E

G|-----------------|-----------------|-----------------|-----------------|
D|-----------------|-----------------|-----------------|-----------------|
A|-----------------|-----------------|-----------------|-----------------|
E|---2---2---2---2-|---2---2-2-2---2-|---2---2---2---2-|---2---2-2-2---2-|
B|-----------------|-----------------|-----------------|-----------------|
   E E E E E Q   E   E Q   E E Q   E   E Q   Q   Q   E   E Q   E E Q   E

G|-----------------|-----------------|-----------------|-----------------|
D|-----------------|-----------------|-----------------|-----------------|
A|-----------------|-----------------|-----------------|-----------------|
E|---0---0---0---0-|---0---0-0-0---0-|---0---0---0---0-|---0---0-0-0---0-|
B|-----------------|-----------------|-----------------|-----------------|
   E E E E E Q   E   E Q   E E Q   E   E Q   Q   Q   E   E Q   E E Q   E

[Solos]

G|-----------------|-----------------|-----------------|-----------------|
D|-----------------|-----------------|-----------------|-----------------|
A|---1-------4---1-|-1---4-3---1-----|-------6-------6-|---6---6---6-5-4-|
E|-------1---------|---1---------1---|-----------------|-----------------|
B|-----------------|-----------------|---4-------4-----|-----------------|
   E Q   Q   Q   E   E E E Q   E Q     E Q   Q   Q   E   E Q   Q   E E E

G|-----------------|-----------------|-----------------|-----------------|
D|-----------------|-----------------|-----------------|-----------------|
A|-----------------|---4---1-3-------|---4---4-4-3-----|-----------------|
E|-----------------|-----------1-----|-------------6-4-|-0---------------|
B|---2---2---2---2-|---------------2-|-----------------|-----------------|
   E Q   Q   Q   E   E Q   E E Q   E   E Q   E E E E E   Q   Q   H

G|-----------------|-----------------|-----------------|-----------------|
D|-----------------|-------4---------|---------4-------|-6---6-----------|
A|-----------------|-----------------|-----------4-----|---4---4---6---4-|
E|-2---------2-2-2-|---------------2-|-2-----2---------|-----------------|
B|-----------------|-----------------|-----------------|-----------------|
   H       E E E E   Q.    E Q.    E   Q.    E E Q.      E E E Q   Q   E

G|-----------------|-----------------|-----------------|-----------------|
D|-----------------|-----------------|---------------2-|---2---2-2-2-2---|
A|-----------------|-----------------|-----------------|-----------------|
E|---0---0---0---0-|---0---0-0-0---0-|---0---0---0-----|-----------------|
B|-----------------|-----------------|-----------------|-----------------|
   E E E E E Q   E   E Q   E E Q   E   E Q   Q   Q   E   E Q   E E E Q

[Outro]

11 Bars Rest

G|-----------------|-----------------|-----------------||
D|-----------------|-----------------|-----------------||
A|-----------------|-----------------|-----------------||
E|-----------------|-----------------|-----------------||
B|-------2---2-----|---0---0-0-------|-----------------||
   Q.    Q   Q   E   E Q   E H         W
Suggest correction
Creating personal tab
Creating personal tab
You can edit any tab online and save it as your Personal.

You can edit, replace or remove any tab part or add personal notes – all changes will be seen only by you.

Personal tabs can be accessed anytime from any device, even offline.
Learn more »
Give kudos to tab author, rate the tab!
1 2 3 4 5
comments
print report bad tab
guest
You may want to rate the tab now too:
select rating
Wanna post a correction for this tab? Suggest correction