Oops, an error
Loading. Please wait.

The Dreamer bass

229 views 9 this week
no commentswrite comment
1 2 3 4 5
3 more votes to show rating
add to favorites
×
Save as Personal and add changes to this tab that will be seen only by you. Learn more ›
×
You can save this tab as Personal to edit and correct it or add notes. All changes will be seen only by you. Learn more »
launch autoscroll
font size
0
reset
guitar tuner
edit
Autoscroll
slow
fast
+/-
esc
set tempo
stop
Author
Difficulty
[Intro]

12 Bars Rest

[Verse 1]

G|-----------------|-----------------|-----6-----6-----|-----------------|
D|-----7-----7-----|-----6-----6-----|-------6---------|-----7-----7-----|
A|-----------------|-----------------|-4---------------|-----------------| x2
E|-5-----0-5-----4-|(4)------4---4-4-|---------------5-|(5)------5---0-2-|
   Q   E E E Q   E   Q   E E E E E E   Q   E Q   Q   E   Q   E E E E E E

G|-----------------|-----------------|-----6-----6-----|-----------------|
D|-----7-----7-----|-----------6-----|-------6---------|-----7-----7-----|
A|-----------------|-----------------|-4---------------|-----------------| x3
E|-5-----0-5-----4-|(4)--4---4---4-4-|---------------5-|(5)------5---0-2-|
   Q   E E E Q   E   Q   Q   E E E E   Q   E Q   Q   E   Q   E E E E E E

G|-----------------|-----------------|-----6-----6-----|-----------------|
D|-----7-----7-----|-----------------|-------6---------|-----7-----7-----|
A|-----------------|-----------------|-4---------------|-----------------|
E|-5-----0-5-----4-|(4)--4-4-4---4---|---------------5-|(5)------5---0-2-|
   Q   E E E Q   E   Q   E E Q   Q     Q   E Q   Q   E   Q   E E E E E E

[Chorus 1]

G|-----------------|-----------------|-----6-----6-----|-----------------|
D|-----7-----7-----|-----------6-----|-------6---------|-----7-----7-----|
A|-----------------|-----------------|-4---------------|-----------------|
E|-5-----0-5-----4-|(4)--4---4---4-4-|---------------5-|(5)------5---0-2-|
   Q   E E E Q   E   Q   Q   E E E E   Q   E Q   Q   E   Q   E E E E E E

G|-----------------|-----------------|-----6-----6-----|-----------------|
D|-----7-----7-----|-------6---6-----|-------6---------|-----7-----7-----|
A|-----------------|-----------------|-4---------------|-----------------|
E|-5-----0-5-----4-|(4)--4---4---4---|---------------5-|(5)------5---0-2-|
   Q   E E E Q   E   Q   E E E E Q     Q   E Q   Q   E   Q   E E E E E E

G|-----------------|-----------------|-----6-----6-----|-----------------|
D|-----7-----7-----|-----------6-----|-------6---------|-----7-----7-----|
A|-----------------|-----------------|-4---------------|-----------------|
E|-5-----0-5-----4-|(4)--4---4---4-4-|---------------5-|(5)------5---0-2-|
   Q   E E E Q   E   Q   Q   E E E E   Q   E Q   Q   E   Q   E E E E E E

G|-----------------|-----------------|-----6-----6-----|-----------------|
D|-----7-----7-----|-----------------|-------6---------|-----7-----7-----|
A|-----------------|-----------------|-4---------------|-----------------|
E|-5-----0-5-----4-|(4)--4-4-4---4---|---------------5-|(5)------5---0-2-|
   Q   E E E Q   E   Q   E E Q   Q     Q   E Q   Q   E   Q   E E E E E E

[Verse 2]

G|-----------------|-----------------|-----6-----6-----|-----------------|
D|-----7-----7-----|-----6-----6-----|-------6---------|-----7-----7-----|
A|-----------------|-----------------|-4---------------|-----------------| x2
E|-5-----0-5-----4-|(4)------4---4-4-|---------------5-|(5)------5---0-2-|
   Q   E E E Q   E   Q   E E E E E E   Q   E Q   Q   E   Q   E E E E E E

[Chorus 2]

G|-----------------|-----------------|-----6-----6-----|-----------------|
D|-----7-----7-----|-----------------|-------6---------|-----7-----7-----|
A|-----------------|-----------------|-4---------------|-----------------|
E|-5-----0-5-----4-|(4)--4-4-4---4---|---------------5-|(5)------5---0-2-|
   Q   E E E Q   E   Q   E E Q   Q     Q   E Q   Q   E   Q   E E E E E E

G|-----------------|-----------------|-----6-----6-----|-----------------|
D|-----7-----7-----|-------6---6-----|-------6---------|-----7-----7-----|
A|-----------------|-----------------|-4---------------|-----------------|
E|-5-----0-5-----4-|(4)--4---4---4---|---------------5-|(5)------5---0-2-|
   Q   E E E Q   E   Q   E E E E Q     Q   E Q   Q   E   Q   E E E E E E

G|-----------------|-----------------|---------6-6-----|-----------------|
D|-----7-----7-----|-----------------|-----------------|-----7-----7-----|
A|-----------------|-----------------|-4---4-----------|-----------------|
E|-5-----0-5-----4-|(4)--4-4-4---4---|---------------5-|(5)------5---0-2-|
   Q   E E E Q   E   Q   Q   Q   Q     Q   Q   E Q   E   Q   E E E E E E

G|-----------------|-----------------|-----------------|-----------------|
D|-----7-----7-----|-----------6-----|-----------------|-----7-----7-----|
A|-----------------|-----------------|-4---4-4-4---4---|-----------------|
E|-5-----0-5-----4-|(4)--4---4---4---|---------------5-|(5)------5---0-2-|
   Q   E E E Q   E   Q   Q   E E Q     Q   E E Q   E E   Q   E E E E E E

[Breakdown]

16 Bars Rest

[Chorus 3]

G|-----------------|-----------------|-----6-6---6-6---|-----------------|
D|-----7-----7-----|-----------------|-----------------|-----7-----7-----|
A|-----------------|-----------------|-4-------4-------|-----------------|
E|-5-----0-5-----4-|(4)--4-4-4---4---|---------------5-|(5)------5---0-2-|
   Q   E E E Q   E   Q   E E Q   Q     Q   E E E E E E   Q   E E E E E E

G|-----------------|-----------------|-----6-----------|-----------------|
D|-----7-----7-----|-------------6---|-----------------|-----------------|
A|-----------------|-----------------|-4-----4---4-----|-----------------|
E|-5-----0-5-----4-|(4)--4-4-4-------|---------------5-|(5)--5---5---0-2-|
   Q   E E E Q   E   Q   E E Q   Q     Q   E Q   Q   E   Q   E E E E E E

G|-----------------|-----------------|-----6-6-6-6-----|-----------------|
D|-----7-----7-----|-------------6---|-----------------|-----------------|
A|-----------------|-----------------|-4---------------|-----------------|
E|-5-----0-5-----4-|(4)--4-4-4-------|---------------5-|(5)--5---5---0-2-|
   Q   E E E Q   E   Q   E E Q   Q     Q   E E E Q   E   Q   E E E E E E

G|-----------------|-----------------|-----6-----------|-----------------|
D|-----7-----7-----|-------------6---|-----------------|-----------------|
A|-----------------|-----------------|-4-----4---4-----|-----------------|
E|-5-----0-5-----4-|(4)--4-4-4-------|---------------5-|(5)--5---5---0-2-|
   Q   E E E Q   E   Q   E E Q   Q     Q   E Q   Q   E   Q   E E E E E E

[Rap]

G|-----------------|-----------------|-----6-----------|-----------------|
D|-----------------|-----------------|-----------------|-------------7---|
A|-------7---------|-----------------|-4-----4-4-4-----|-----------------|
E|-5-------5-----4-|(4)--4---4-4-4---|---------------5-|(5)--5---5-5-----|
   Q   E E E Q   E   Q   Q   E E Q     Q   E E E Q   E   Q   E E E E Q

G|-----------------|-----------------|-------6---------|-----------------|
D|-----------------|---------------6-|-----------------|-----------------|
A|-------7---------|-----------------|-4---4---4-4-----|-----------------|
E|-5-------5-----4-|(4)--4---4---4---|---------------5-|(5)--5---5---0-2-|
   Q   E E E Q   E   Q   Q   Q   E E   Q   E E E Q   E   Q   Q   Q   E E

G|-----------------|-----------------|-----------------|-----------------|
D|-----------------|---------------6-|-----------------|-----------------|
A|-------7---------|-----------------|-4---4-4-4---4---|-----------------|
E|-5-------5-----4-|(4)--4---4---4---|---------------5-|(5)--5---5---0-2-|
   Q   E E E Q   E   Q   Q   Q   E E   Q   E E Q   E E   Q   Q   Q   E E

G|-----------------|-----------------|-----6-----------|-----------------|
D|-----------------|-------------6---|-----------------|-----------------|
A|-------7---------|-----------------|-4-----4-4-4-----|-----------------|
E|-5-------5-----4-|(4)--4---4-4-----|---------------5-|(5)\-------------|
   Q   E E E Q   E   Q   Q   E E Q     Q   E E E Q   E   H       H

G|-----------------|-----------------|-----6-----6-6---|-----------------|
D|-----------------|-----------------|-----------------|-----------------|
A|-------7---------|-----------------|-4-----4-4-------|-----------------|
E|-5-------5-----4-|(4)--4---4---4---|---------------5-|(5)--5---5---0-2-|
   Q   E E E Q   E   Q   Q   Q   Q     Q   E E E E E E   Q   Q   Q   E E

G|-----------------|-----------------|-----6-----6-6---|-----------------|
D|-----------------|-----------------|-----------------|-----------------|
A|-------7---------|-----------------|-4-----4-4-------|-----------------|
E|-5-------5-----4-|(4)--4---4---4-4-|---------------5-|(5)--5---5---0-2-|
   Q   E E E Q   E   Q   Q   Q   E E   Q   E E E E E E   Q   Q   Q   E E

G|-----------------|--------------13-|-----6-------6---|-----------------|
D|-----------------|------------11---|-----------------|-----------------|
A|-------7---------|-----------------|-4-----4-4-4-----|-----------------|
E|-5-------5-----4-|(4)--4---4-------|---------------5-|(5)--5---5---0-2-|
   Q   E E E Q   E   Q   Q   Q   E E   Q   E E E E E E   Q   Q   Q   E E

G|-----------------|--------------13-|-----6---6-6-6---|-----------------|
D|-----------------|------------11---|-----------------|-----------------|
A|-------7---------|-----------------|-4-----4---------|-----------------|
E|-5-------5-----4-|(4)--4---4-------|---------------5-|(5)--5---5---0-2-|
   Q   E E E Q   E   Q   Q   Q   E E   Q   E E E E E E   Q   Q   Q   E E

G|-----------------|-----------------|-----6-6-6---6---|-----------------|
D|-----------------|-----------------|-----------------|-----------------|
A|-------7---------|-----------------|-4---------------|-----------------|
E|-5-------5-----4-|(4)----4-4---4---|---------------5-|(5)--5---5---0-2-|
   Q   E E E Q   E   Q.    E Q   Q     Q   E E Q   E E   Q   Q   Q   E E

G|-----------------|-----------------|-----6-------6---|-----------------|
D|-----------------|---------------6-|-----------------|-----------------|
A|-------7---------|-----------------|-4-----4-4-4-----|-----------------|
E|-5-------5-----4-|(4)--4---4---4---|---------------5-|(5)--5---5---0-2-|
   Q   E E E Q   E   Q   Q   Q   E E   Q   E E E E E E   Q   Q   Q   E E

G|-----------------|-----------------|-----6-----6-6---|-----------------|
D|-----------------|-----------------|-----------------|-----------------|
A|-------7---------|-----------------|-4-----4-4-------|-----------------|
E|-5-------5-----4-|(4)------4---4---|---------------5-|(5)--5---5---0-2-|
   Q   E E E Q   E   H       Q   Q     Q   E E E E E E   Q   Q   Q   E E

[Chorus 4]

16 Bars Rest

[Outro]

G|-----------------|-----------------|-----6-----6-6---|-----------------|
D|-----7-----7-----|-----6-------6---|-----------------|-----------------|
A|-----------------|-----------------|-4-----4-4-------|-----------------|
E|-5-----0-5-----4-|(4)--------4-----|---------------5-|(5)--5---5---0-2-|
   Q   E E E Q   E   Q   E Q   E E E   Q   E E E E E E   Q   Q   Q   E E

G|-----------------|-----------------|-----6-----6-----|-----------------|
D|-----7-----7-----|-------6-----6---|-----------------|-----------------|
A|-----------------|-----------------|-4-----4---------|-----------------|
E|-5-----0-5-----4-|(4)------4-------|---------------5-|(5)--5---5---0-2-|
   Q   E E E Q   E   Q   E E E E E E   Q   E Q   E E E   Q   Q   Q   E E

G|-----------------|-----------------|-----6-----------|-----------------|
D|-----7-----7-----|-----------------|-----------------|-----------------|
A|-----------------|-----------------|-4-----4-4-------|-----------------|
E|-5-----0-5-----4-|(4)--4---4---4---|---------------5-|(5)--5---5---0-2-|
   Q   E E E Q   E   Q   Q   Q   Q     Q   E E Q.    E   Q   Q   Q   E E

G|-----------------|-----------------|-----6-----------||
D|-----7-----7-----|-----------------|-----------------||
A|-----------------|-----------------|-4-----4-4---4---||
E|-5-----0-5-----4-|(4)--4---4---4-4-|-----------------||
   Q   E E E Q   E   Q   Q   Q   E E   Q   E E Q   Q

            
            
Suggest correction
Creating personal tab
Creating personal tab
You can edit any tab online and save it as your Personal.

You can edit, replace or remove any tab part or add personal notes – all changes will be seen only by you.

Personal tabs can be accessed anytime from any device, even offline.
Learn more »
Give kudos to tab author, rate the tab!
1 2 3 4 5
comments
print report bad tab
guest
You may want to rate the tab now too:
select rating
Wanna post a correction for this tab? Suggest correction