Oops, an error
Loading. Please wait.

Riptide Live tab

3,061 views 12 this week
2 commentsread comments
1 2 3 4 5
x 6
add to favorites
×
Save as Personal and add changes to this tab that will be seen only by you. Learn more ›
×
You can save this tab as Personal to edit and correct it or add notes. All changes will be seen only by you. Learn more »
launch autoscroll
font size
0
reset
how to read this tab
guitar tuner
edit
Autoscroll
slow
fast
+/-
esc
set tempo
stop
Cover to Vance Joy's Riptide by Andie Isalie on the ukulele.
https://www.youtube.com/watch?v=JJ5Qq47B3JU

OKAY GUYS I TRIED TO DO MY BEST. I spent at least 4 hours doing this tutorial, watching her in slow motion but
I think I got the gist of it. I have no idea if she repeats the same thing, but here's the first part and you
can just repeat it to sing the whole chorus. This is the part after she sings "and they come unstuck..." and
ends her strumming. If you don't really know how to read tabs, the x's mean to slap the strings and the h
means to hammer on.

           lady             Im going down to the riptide          taken away  to
A |-----x-------0-----3--------3-------x---------3---3-------------3--------x------|
E |--0--x-------0-----0----------------x----0--------0--------0-------------x--0---|
C |--0--x-----0------------------------x------------------------------------x------|
G |-----x--0h2----------0h2--0---0-----x----0----0--------------0-----0-----x--0---|

         darkside       I wanna be your left hand man...          I love you...
A |----------0-----------3-----x--------3----3-----3--------3-----3----------------|
E |----------0------0----------x---0------------------------------0----------------|
C |--------0-------------------x-------------0-------------------------------------|
G |-----0h2---------0h2-----2--x---2----0----------0----------0---0----------------|
     -repeat-
A |------------0-----3--------3-------x--------3---3--------------3--------x-------|
E |------------0-----0----------------x----0-------0--------0--------------x--0----|
C |----------0------------------------x------------------------------------x-------|
G |-------0h2----------0h2--0---0-----x----0---0---------------0-----0-----x--0----|


Repeat the tab for the next part of the chorus. If you guys notice any mistakes, please 
help me out!
All help is appreciated thanks!
Suggest correction
Creating personal tab
Creating personal tab
You can edit any tab online and save it as your Personal.

You can edit, replace or remove any tab part or add personal notes – all changes will be seen only by you.

Personal tabs can be accessed anytime from any device, even offline.
Learn more »
comments
print report bad tab
2 comments total.
+2 reply
RedCh33z 10 Jun 19, 2016 05:13 PM

This is a hard song

guest
You may want to rate the tab now too:
select rating
Wanna post a correction for this tab? Suggest correction