Oops, an error
Loading. Please wait.

Sempurna Tab

version 1
version 1
212,673 views 288 this week
5 commentsread comments
1 2 3 4 5
x 12
add to favorites
launch autoscroll
font size
0
reset
how to read this tab
guitar tuner
Autoscroll
slow
fast
+/-
esc
set tempo
stop
Help us to improve Ultimate-Guitar.com Take our survey!
×
Author
Difficulty
intermediate
[Intro]

e|----------------------------------------|
B|--5-----5--4-----4--2-----2--4-----4----|
G|--4---4-4--4---4-4--2---2-2--4---4-4----|  x2
D|----2--------2--------2--------2--------|
A|----------------------------------------|
E|----------------------------------------|


[Verse]

e|----------------------------------------|
B|--5-----5--4-----4--2-----2--4-----4----|
G|--4---4-4--4---4-4--2---2-2--4---4-4----|  x2
D|----2--------2--------2--------2--------|
A|----------------------------------------|
E|----------------------------------------|

e|--4-----4--2-----2--4-----4--2-----2----|
B|--5---5-5--5---5-5--5---5-5--5---5-5----|
G|----2--------2--------2--------2--------|  
D|----------------------------------------|
A|----------------------------------------|
E|----------------------------------------|


e|----------------------------------------|
B|--5-----5--4-----4--2-----2--4-----4----|
G|--4---4-4--4---4-4--2---2-2--4---4-4----|
D|----2--------2--------2--------2--------|
A|----------------------------------------|
E|----------------------------------------|


[Pre-Chorus]

e|--7-----7--5-----5--7-----7--5-----5----|
B|--5---5-5--5---5-5--5---5-5--5---5-5----|
G|----4--------4--------4--------4--------| x3  
D|----------------------------------------|
A|----------------------------------------|
E|----------------------------------------|


[Chorus]

e|--0-0--2-2--0---4-------4---------------|
B|--0-0--4-4--2---5---5---5---------------|
G|--1-1--4-4--2-----2---2-----------------|  
D|--2-2--4-4--2---------------------------|  
A|--2-2--2-2--0---------------------------|
E|--0-0--x-x--x---------------------------|


e|--0-0--2-2--0---4-------4---------------|
B|--0-0--4-4--2---5---5---5---------------|
G|--1-1--4-4--2-----2---2-----------------|  
D|--2-2--4-4--2---------------------------|  
A|--2-2--2-2--0---------------------------|
E|--0-0--x-x--x---------------------------|


e|--4-4--4-4--0-0-0--0-0---4-4--4-4--0-0-------4p2-0-------|
B|--5-5--4-4--2-2-2--0-0---5-5--4-4--2-2------2------------|
G|--6-6--4-4--2-2-2--1-1---6-6--4-4--2-2-----2-------------|  
D|--6-6--6-6--2-2-2--2-2---6-6--6-6--2-2----4--------------|
A|--4-4--6-6--0-0-0--2-2---4-4--6-6--0-0---4---------------|
E|--x-x--4-4--x-x-x--0-0---x-x--4-4--x-x--2----------------|
                           oh sayangku kau begitu... 

e|----------------------------------------|
B|--5-----5--4-----4--2-----2--4-----4----|
G|--4---4-4--4---4-4--2---2-2--4---4-4----|  x2
D|----2--------2--------2--------2--------|
A|----------------------------------------|
E|----------------------------------------|
   sempurna....

(2nd GUITAR-during chorus)
e|--4-----4--2-----2--4-----4--2-----2----|
B|--5---5-5--5---5-5--5---5-5--5---5-5----|
G|----2--------2--------2--------2--------|  
D|----------------------------------------|
A|----------------------------------------|
E|----------------------------------------|


[Verse]

e|----------------------------------------|
B|--5-----5--4-----4--2-----2--4-----4----|
G|--4---4-4--4---4-4--2---2-2--4---4-4----|  x2
D|----2--------2--------2--------2--------|
A|----------------------------------------|
E|----------------------------------------|

e|--4-----4--2-----2--4-----4--2-----2----|
B|--5---5-5--5---5-5--5---5-5--5---5-5----|
G|----2--------2--------2--------2--------|  
D|----------------------------------------|
A|----------------------------------------|
E|----------------------------------------|


e|----------------------------------------|
B|--5-----5--4-----4--2-----2--4-----4----|
G|--4---4-4--4---4-4--2---2-2--4---4-4----|
D|----2--------2--------2--------2--------|
A|----------------------------------------|
E|----------------------------------------|


(Repeat)

[Pre-Chorus]

[Chorus]

[Pre-Chorus]

[Chorus]
Suggest correction
comments
print report bad tab
5 comments total. Showing first comments.
0 reply
ZellyHermith 10 Oct 15, 2007 08:42 PM

Doesnt anyone listen to this kind of songs???

0 reply
inthera 10 Mar 04, 2008 05:21 AM

bagus2 untung disini ada ^^

nice2 i'm glad they have this tab here :D

0 reply
tinton777 10 May 09, 2008 02:22 AM

not bad, but not good

guest
You may want to rate the tab now too:
select rating
Wanna post a correction for this tab? Suggest correction